» » »

Clap Your Hands Say Yeah, Underwater (You And Me) Bass tabs (ver.1)

Artists:  A B C D E F G H I J K L M N O P Q R S T U V W X Y Z # 

Underwater (You And Me) Bass tabs (ver.1)

Clap Your Hands Say Yeah Tabs
 Rating:
4/5 (4 votes)
Underwater (You And Me) lessons Tabs too difficult? Try these video lessons and learn fast
1
                I think this is pretty accurate, i listened to the song and figured it out and this 
like it fits. point out any mistakes please :)

Intro: Play 3x

G|-------------------------------------------|
D|--------------------------------------11---|
A|12-12--12-14-12--12-11-12--12-14-12-14--14-|
E|-------------------------------------------|

Start to play a 4th time, but it changes a little for the last 2 measures.

Variation 1:

G|------------------------------------------|
D|-------------------12-11-------12-11------|
A|12-12--12-14-12--12-----12----------14-12-|
E|--------------------------14-12-----------|

Play Intro again 3x more, then the variation, then the Intro once more. After that comes 
which is the same as the Intro but only a one note difference at the end.

Variation 2:

G|-------------------------------------------|
D|-----------------------------------12-11---|
A|12-12--12-14-12--12-11-12--12-14-12--------|
E|-------------------------------------------|

Variation 3:

G|-------------------------------------------|
D|-----------------------------------14-12---|
A|12-12--12-14-12--12-11-12--12-14-12--------|
E|-------------------------------------------|

This next bit comes at the very end and is played after the last time Variation 1 is 
(Note: Hold in the last note, which is the starting note for the last part played.)

Ending: Played 3x

G|------------------------|
D|------11----12----------|
A|12----------------------|
E|------------------12----|

Whole Song: (I = Intro, V1/2/3 = Variation 1/2/3, and so on)
------------------------------------------------------------

Intro x3
V1
Intro x3
V1
Intro
V2
Intro
v2
Intro
v1
Intro
v2
Intro
v1
v3
Intro
v1
Intro
v1
Intro
v1
Intro
v1
Intro
v1
Intro
v1
Intro
v1
Intro
Ending x3
------------------------------------------------------------

Thanks for reading. Again, i think this is pretty accurate, point out any mistakes you 
find. :)
            
Submit corrections

comments powered by Disqus
↑ Back to top | Clap Your Hands Say Yeah Bass for Underwater (You And Me). Lyrics for acoustic guitar and electric guitar. 1 Tablatures and chords are parodies/interpretations of the original songs. You may use it for private study, scholarship, research or language learning purposes only