» » »

Satan Said Dance Bass tabs (ver.1)

Artists:  A B C D E F G H I J K L M N O P Q R S T U V W X Y Z # 

Satan Said Dance Bass tabs (ver.1)

Clap Your Hands Say Yeah
Rating:
4/5 (1 vote)

Hard to play? Try these video lessons and learn fast.
                For most of the song its these two riffs:

G:---------------------------------|
D:---------------------------------|
A:---------------------------------| (alot of these)
E:-5-5-5-5-5-5-5-5-5-5-5-5-5-5-5-5-|

G:---------------------------------|
D:---------------------------------|
A:---------------------------------| (way more of these)
E:-5-5-5-5-8-8-8-8-5-5-5-5-8-8-8-8-|

And every so often this:

G:---------------------------------|
D:---------------------------------|
A:---------------------------------|
E:-5-5-5-5-8-8-8-8-5-5-5-5-3-3-3-3-|

And the chorus is:

G:----------------    G:-----------------|
D:----------------    D:-----------------|
A:---------------- x3 A:-----------------| x1
E:-5-5-5-5-2-2-3-3    E:0-0-0-0-0-0-0-0--|
            
Hard to play? Try these video lessons and learn fast. | Correct




comments powered by Disqus
↑ Back to top | Tablatures and chords are parodies/interpretations of the original songs. You may use it for private study, scholarship, research or language learning purposes only