» » »

Clap Your Hands Say Yeah, Is This Love? Tabs (ver.1)

Artists:  A B C D E F G H I J K L M N O P Q R S T U V W X Y Z # 

Is This Love? Tabs (ver.1)

Clap Your Hands Say Yeah Tabs
 Rating:
4/5 (4 votes)
Is This Love? lessons Tabs too difficult? Try these video lessons and learn fast
                -------------------------------------------------------------------------------
-------------------------------------------------------------------------------

Tuning:EADGBe

Intro and Verses 1 and 2:

(Move your pinkie to make the chords and strum rapidly)

 E--5---------7-------5--------5--------------|
 B--5---------5-------5--------7--------------|
 G--6---------6-------6--------6--------------|
 D--7--x3-----5-x9----7-x12----5-x9-----------|
 A--7---------7-------7--------7--------------|
 E--5---------5-------5--------5--------------|


 E--5---------7-------5--------5--------------|
 B--5---------5-------5--------7--------------|
 G--6---------6-------6--------6--------------|
 D--7--x12----5-x9----7-x12----5-x9-----------| x6
 A--7---------7-------7--------7--------------|
 E--5---------5-------5--------5--------------|

Chorus

 E---2--------5-----------|
 B---3--------5-----------|
 G---4--------6-----------|
 D---4--x12---7-x12-------| x5
 A---2--------7-----------|
 E------------5-----------|

 E---5--5----3--3----2----------------|
 B---5--5----3--3----3----------------|
 G---6--6----4--4----4----------------|
 D---7--7----5--5----4-x5-------------|
 A---7--7----5--5----2----------------|
 E---5--5----3--3---------------------|

Bridge

 E---2--------5-----------|
 B---3--------5-----------|
 G---4--------6-----------|
 D---4--------7-----------| x3
 A---2--------7-----------|
 E------------5-----------|

Verse 3

 E--5---------7-------5--------5----------------------------------|
 B--5---------5-------5--------7----------------------------------|
 G--6---------6-------6--------6----------------------------------|
 D--7--x3-----5-x9----7-x12----5-x9-------------------------------|
 A--7---------7-------7--------7----------------------------------|
 E--5---------5-------5--------5----------------------------------|


 E--5---------7-------5--------5----------------------------------|
 B--5---------5-------5--------7----------------------------------|
 G--6---------6-------6--------6----------------------------------|
 D--7--x12----5-x9----7-x12----5-x9-------------------------------| x6
 A--7---------7-------7--------7----------------------------------|
 E--5---------5-------5--------5----------------------------------|

Chorus

 E---2--------5-----------|
 B---3--------5-----------|
 G---4--------6-----------|
 D---4--x12---7-x12-------| x5
 A---2--------7-----------|
 E------------5-----------|

 E---5--5----3--3----2-------------|
 B---5--5----3--3----3-------------|
 G---6--6----4--4----4-------------|
 D---7--7----5--5----4-x5----------|
 A---7--7----5--5----2-------------|
 E---5--5----3--3------------------|

Bridge

 E---2--------5-----------|
 B---3--------5-----------|
 G---4--------6-----------|
 D---4--------7-----------| x4
 A---2--------7-----------|
 E------------5-----------|


 E--5----2------5------3-----2--2--2----5--5--5----|
 B--5----3------5------3-----3--3--3----5--5--5----|
 G--6----4------6------4-----4--4--4----6--6--6----|
 D--7----4-x3---7-x3---5-x3--4--4--4----7--7--7----| 
 A--7----2------7------5-----2--2--2----7--7--7----|
 E--5-----------5------3----------------5--5--5----|

Outro

 E-----5-------4-----2-----2------7-----5----------------|
 B-----5-------5-----3-----3------9-----7----------------|
 G-----6-------4-----2-----4------9-----7----------------|
 D-----7-------------------4------9-----7----------------| x2
 A-----7-------------------2------7-----5----------------|
 E-----5-------------------------------------------------|


 E-----5---5-------4-----2-----2------7-----5------------|
 B-----5-----5-----5-----3-----3------9-----7------------|
 G-----6-------6---4-----2-----4------9-----7------------|
 D-----7-----------------------4------9-----7------------| x2
 A-----7-----------------------2------7-----5------------|
 E-----5-------------------------------------------------|

Finish on

 E-----5-------------|
 B-----5-------------|
 G-----6-------------|
 D-----7---let ring--|
 A-----7-------------|
 E-----5-------------|




| /  slide up
| \  slide down
| h  hammer-on
| p  pull-off
| ~  vibrato
| +  harmonic
| x  Mute note
===============================================================================
            
Submit corrections

comments powered by Disqus
↑ Back to top | Clap Your Hands Say Yeah Tabs for Is This Love?. Lyrics for acoustic guitar and electric guitar. Tablatures and chords are parodies/interpretations of the original songs. You may use it for private study, scholarship, research or language learning purposes only