» » »

Clap Your Hands Say Yeah, Emily Jean Stock Tabs (ver.1)

Artists:  A B C D E F G H I J K L M N O P Q R S T U V W X Y Z # 

Emily Jean Stock Tabs (ver.1)

Clap Your Hands Say Yeah Tabs
Rating:
5/5 (2 votes)
Emily Jean Stock lessons Tabs too difficult? Try these video lessons and learn fast
                Clap Your Hands Say Yeah

Please give me your comments and corrections!

Chords:
-0- --- --- -3-|
-0- -0- -2- -2-|
-1- -4- -2- -2-|
-2- -4- -2- -2-|
-2- -2- -0- ---|
-0- --- --- ---|
 E   B   A   A7

***
You look so neat
E
Everyday is your birthday
E
You're such a treat
E
I'm just a drip in your faucet
E


Before the party's over
E                      A B
Before the highway road ends
E
Before the day begins
E
There's something I need to say
E   A   B                     E


There's no on else
E
There is no one quite so perfect
E
When you're foreign Bound
E
I am the coin in your pocket
E


Just wait for me the night through
E                                 A B
Like I do for you
E
There's no one left to cry boo hoo
E                               A
Play it through ok ok ok ok oh
B    E

B A/A7 E
B A/A7 E
B A/A7 E
B A/A7 E

You're not like me
E
It seems that people stick like flies to you
E
And my mystery
E
Is just that I've no one to cling to
E


I think it's the Chinese New Year
E                               A
Of this I'm fairly clear
 B               E
And what better way to celebrate
E
Than run away with little boy blue?
A            B               E


Come along now now now now
E                    A B
Don't think on an offer that you can't refuse
E                                      A   B
Yesterday's not quite the same let's make it plain
E                                    A         B
There are things that I can do
E


B A/A7/A E
B A/A7/A E
E

Some day we're going to make it all right
E                          A    B


It is a radio tells me so
E          A B

***
----------------------------------------------------------|
----------------------------------------------------------|
----------------------------------------------------------|
----------------------------------------------------------|
-----2-2---2h4-2-----2-4--------------2---2h4-------------|
-7\4-----4--------/4-----2^-0---7\4-4---4-----4-5-4-2h4-0-|
0:49                            0:56

---------------------------|
---------------------------|
---------------------------|
---------------------------|
---------------------------|
-7--5--3--0-----7--5--3--0-|
1:22

-------------------------------------------------------------|
-------------------------------------------------------------|
-------------------------------------------------------------|
-------------------------------------------------------------|
-----2-2---2h4-2------------------------2---2h4--------------|
-7\4-----4--------4-4-4-4-v2--0---7\4-4---4-----4-5-4-2-4-0--|
1:58                              2:06

------------------------|
------------------------|
------------------------|
------------------------|
------------------------|
-7--5--3/5--0-----7\(5)-|
2:43

-------------------------------|---------------------------------|
-------------------------------|---------------------------------|
-------------------------------|---------------------------------|
-------------------------------|---------------------------------|
-------------------------------|---------------------------------|
-12-12-12-12-12\10---5-5-5/7-7-|-12-12-12/14-12\10---5-5-5/7-7---|
3:00 (repeats)                   3:28 (repeats)
            
Submit corrections

comments powered by Disqus
↑ Back to top | Clap Your Hands Say Yeah Tabs for Emily Jean Stock. Lyrics for acoustic guitar and electric guitar. Tablatures and chords are parodies/interpretations of the original songs. You may use it for private study, scholarship, research or language learning purposes only