>
 >
Layla Acoustic (Solo)

Layla Acoustic (Solo) Guitar Tabs

Clapton Eric - Layla Acoustic (Solo) chords, tabs, tablatures, lyrics

Guitar lessons | Add/correct | Request | Top 50 tabs Artists:  A B C D E F G H I J K L M N O P Q R S T U V W X Y Z 0-9

Layla Acoustic (Solo) Guitar Tabs – Clapton Eric

CD, Sheet music, Poster

Do you like Layla Acoustic (Solo)? Share with your friends now
Tabs
Layla (Unplugged Acoustic) Solos  Eric Clapton

hey, most of the layla tabs i found out there are pretty decent, except for the
intro solo and the middle solo, which really blow...so i tabbed out a version
which i think is pretty spot on, hope u guys enjoy it! sorry if the timing is a
little unclear, this is the first tab im posting online. {SC1 ROX}

Tuning: standard

Intro Solo (0:16)

e|----------------------------------------------------------------8--10--12--|
B|----------5-6--5h6p5---5-6-5---5-6--6/8--6-88/10--8--10/13--10------------|
G|------5-7------------7-------7---------------------------------------------|
D|----7----------------------------------------------------------------------|
A|---------------------------------------------------------------------------|
E|---------------------------------------------------------------------------|

e|----10h12p10--8-10-8-------------------------------------------------------|
B|---------------------10p8--10--8\66h8p6-----------------------------------|
G|------------------------------------------9-10-9\7--7---------------------|
D|---------------------------------------------------------------------------|
A|---------------------------------------------------------------------------|
E|---------------------------------------------------------------------------|

e|---------------------------------------------------------------------------|
B|----------5-6--------------------------------------------------------------|
G|------5-7------7p5--7------------------------------------------------------|
D|----7-----------------\5---------5--\5--3-5--------------------------------|
A|--------------------------8p4--8-----------------0-3-----------------------|
E|---------------------------------------------------------------------------|


Solo at 2:56

e|----5-5-5-5-5-5---5---------------------------/8--8--8--8--8--8--8---------|
B|----6-6-6-6-6-6-6-6---------------------------/10-10-10-10-10-10-10--------|
G|----------------7---7p5----------------------------------------------------|
D|------------------------5-5--5p3--5\3----3-5-------------------------------|
A|---------------------------------------5-----------------------------------|
E|---------------------------------------------------------------------------|

e|----8--8--8--8--8--8---------------------------8-10-12--10h12p10--8-10-----|
B|----10-10-10-10-10-10---------8-----------8-10-----------------------------|
G|----------------------5-7--------10p7--10----------------------------------|
D|--------------------------5h7----------------------------------------------|
A|---------------------------------------------------------------------------|
E|---------------------------------------------------------------------------|

e|----8----------------------------------------------------------------------|
B|------10p8--10-10-10--11p10--10-8--------------------5-6--5h6p5------------|
G|----------------------------------10-9--7h9--7-7---7------------7-5--------|
D|-------------------------------------------------7------------------7-5----|
A|---------------------------------------------------------------------------|
E|---------------------------------------------------------------------------|

e|-----------------13-10-8-10-12--10h12p10--10-8----------10----13-10--------|
B|-----------------------------------------------10p8--10----10-------13-----|
G|---------------------------------------------------------------------------|
D|---------------------------------------------------------------------------|
A|----8-8--10p8--5-----------------------------------------------------------|
E|---------------------------------------------------------------------------|

e|----15----15-15-13----10-12-13-15--13-15--12-13-10-8-------------8---------|
B|-------13----------10--------------------------------10--10\8--6---8-10----|
G|---------------------------------------------------------------------------|
D|---------------------------------------------------------------------------|
A|---------------------------------------------------------------------------|
E|---------------------------------------------------------------------------|

e|---------------------------------------------------------------------------|
B|-------------10-10--10\7--10-10--------------------------------------------|
G|----12p10----10-9---9-\8--10-9h10--7---------------------------------------|
D|----------12-------------------------10------------------------------------|
A|----------------------------------------10--10p8----8----------------------|
E|-------------------------------------------------10------------------------|


| /  slide up
| \  slide down
| h  hammer-on
| p  pull-off
| ~  vibrato
| +  harmonic
| x  Mute note





Comments


Popular Clapton Eric tabs & chords
After Midnight 1 Bass Tabs
Lay Down Sally Chords
Motherless Children Chords
Run So Far Chords
Circus Tabs
Help Me Up 1 Tabs
Im Tore Down 1 Tabs
Ive Got A Rock And Roll Heart 1 Tabs
Watch Out For Lucy Tabs
Why Does Love 1 Tabs


Song lyrics



↑ Back to top | Tablatures and chords are parodies/interpretations of the original songs. You may use it for private study, scholarship, research or language learning purposes only
© 2014 AZChords.com Contact us | Privacy policy | DMCA | Add/correct tabs | Request tabs | Top 50 tabs