» » »

Civ, United Kids Tabs (ver.1)

Artists:  A B C D E F G H I J K L M N O P Q R S T U V W X Y Z # 

United Kids Tabs (ver.1)

Civ Tabs
 Rating:
4/5 (4 votes)
United Kids lessons Tabs too difficult? Try these video lessons and learn fast
                INTRO:   VERSE:                        (last time)
--------|-------------------|-------|  ------|-------|
--------|-------------------|-------|  ------|-------|
--------|*-7---------------*|-------|  ------|-------|
-7------|*-7---------------*|-4--5--|  -7----|-4--5--|
-7------|--5-7-7-7-7-7-7-7--|-4--5--|  -7----|-4--5--|
-5------|----5-5-5-5-5-5-5--|-2--3--|  -5----|-2--3--|
hold out     p.m..........

CHORUS:
------|---------|------|-------|------|---------|---------|---------|might
------|---------|------|-------|------|---------|---------|---------|be on
------|---------|------|-------|------|---------|-7-7-7-7-|-?-?-?-?-|same
-2----|-(2)-----|-2----|-5--7--|-2----|-(2)-----|-7-7-7-7-|-?-?-?-?-|chord
-2----|-(2)-----|-2----|-5--7--|-2----|-(2)-----|-5-5-5-5-|-?-?-?-?-|or on
-0----|-(0)--3--|-0----|-3--5--|-0----|-(0)--3--|---------|-?-?-?-?-|A5

SOLO (HELP!!! This is a guess as to what can sound ok here):
-7-7-7-5-5-5-----|-----------------|-----------------|--------------------|
-------------8-8-|-7-7-7-5-5-5-----|-----------------|-------5-7b(8)r(7)--|
-----------------|-------------7-7-|-6-6-6-4-4-4-----|-4/6-7--------------|
A----------------|-----------------|-------------7-7-|--------------------|
-----------------|-----------------|-----------------|--------------------|
-----------------|-----------------|-----------------|--------------------|

Play "A" line 2x, "B" line 1x, then "A" 1x
------------|---------------|---------------|---------------------------|
------------|---------------|---------------|-------15-17-17b(18)r(17)--|
-5/--7/--9/-|-10/--12/--14/-|-15---16---17--|-15h17---------------------|
B-----------|---------------|---------------|---------------------------|
------------|---------------|---------------|---------------------------|
------------|---------------|---------------|---------------------------|

SOLO (RHYTHM):
         Play 3x
-------------------|---------------|
-------------------|---------------|
*-----------------*|---------7--7--|
*-5/7-7-7-7-7-7-7-*|-5/7-7-7-7--7--|
--5/7-7-7-7-7-7-7--|-5/7-7-7-5--5--|
--3/5-5-5-5-5-5-5--|-3/5-5-5-------|

CHORUS AFTER SOLO:
      Play 3x     Play 4x
-------|--------|-----------|(soft  |
-------|--------|-----------| part) |
*------|-------*|*-7-7-7-7-*|-------|
*-2----|-5--7--*|*-7-7-7-7-*|-7\----|
--2----|-5--7---|--5-5-5-5--|-7\----|
--0----|-3--5---|-----------|-5\----|

SOFT PART:        HEAVY PART AFTER (maybe this is closer):
?-------|-------?|---------|---------|
?-------|-------?|---------|---------|
?-14----|-12----?|---------|-----7-7-|
?-14----|-12-12-?|-7-7-7-7-|-5-5-7-7-|
?-12----|-10-12-?|-7-7-7-7-|-5-5-5-5-|
?-------|-------?|-5-5-5-5-|-3-3-----|
            
Submit corrections

comments powered by Disqus
↑ Back to top | Civ Tabs for United Kids. Lyrics for acoustic guitar and electric guitar. Tablatures and chords are parodies/interpretations of the original songs. You may use it for private study, scholarship, research or language learning purposes only