» » »

State Of Grace Tabs (ver.1)

Artists:  A B C D E F G H I J K L M N O P Q R S T U V W X Y Z # 

State Of Grace Tabs (ver.1)

Civ
Rating:
0/5 (0 votes)

Hard to play? Try these video lessons and learn fast.
                INTRO & VERSE:
---------|----------------|----------|              ----      -----------|
---------|----------------|----------|Play a bunch  ---- ->   -----------|
---7---9-|*---------------|---7---9-*| of times,    ---- 2nd  -----------|
-6-7-8-9-|*-4-4--4-4-4--4-|-6-7-8-9-*|  hold out    ---- time -9-9-9-9-9-|
-6-5-8-7-|--4-4--4-4-4--4-|-6-5-8-7--|    this      ---- only -7-7-7-7-7-|
-4---6---|--2-2--2-2-2--2-|-4---6----|              -0--      -----------|
                                         p.m.......

I think it ends like this:
    Play 3x
-----------|------|
-----------|------|
*---7---9-*|------|
*-6-7-8-9-*|-4----|
--6-5-8-7--|-4----|
--4---6----|-2----|
            
Hard to play? Try these video lessons and learn fast. | Correct




comments powered by Disqus
↑ Back to top | Tablatures and chords are parodies/interpretations of the original songs. You may use it for private study, scholarship, research or language learning purposes only