» » »

Solid Band Tabs (ver.1)

Artists:  A B C D E F G H I J K L M N O P Q R S T U V W X Y Z # 

Solid Band Tabs (ver.1)

Civ
Rating:
0/5 (0 votes)

Hard to play? Try these video lessons and learn fast.
                Verse
E|--------------------------------------------------------------------------|
B|--------------------------------------------------------------------------|
G|-7-7-7-7---------------7-7-7-7-7-------------------------7-7-7-7----------|
D|-7-7-7-7----4-4-4-4-4--7-7-7-7-7--7-7-7-7-7--5-5-5-5-5---7-7-7-7----------|
A|-5-5-5-5----4-4-4-4-4--5-5-5-5-5--7-7-7-7-7--5-5-5-5-5---5-5-5-5----------|
E|------------2-2-2-2-2-------------5-5-5-5-5--3-3-3-3-3--------------------|

E|--------------------------------------------------------------------------|
B|--------------------------------------------------------------------------|
G|------------7-7-7-7-7-----------------------------------------------------|
D|-4-4-4-4-4--7-7-7-7-7-7-7-7-7-7-5-5-5-5-5---------------------------------|
A|-4-4-4-4-4--5-5-5-5-5--7-7-7-7-7--5-5-5-5-5-------------------------------|
E|-2-2-2-2-2-------------5-5-5-5-5--3-3-3-3-3-------------------------------|

   Chorus

   1. & 2. Giutar
E|---------------------------------------------------------------------------|
B|---------------------------------------------------------------------------|
G|------------4-4-4-4-4--7-7-7-7-7-----------------------------------------\-|
D|-4-4-4-4-4--4-4-4-4-4--7-7-7-7-7--7-7-7-7-7--------------------------------|x2
A|-4-4-4-4-4--2-2-2-2-2--5-5-5-5-5--7-7-7-7-7--------------------------------|
E|-2-2-2-2-2------------------------5-5-5-5-5--------------------------------|

   1. Guitar
E|--------------------------------------------------------------------------|
B|-7-7-7-7-7-7-7-7-7-7-7-7-7-7-7-7-7--8-8-8-8-8-8--5-5-5-5-5-5--------------|
G|--------------------------------------------------------------------------|
D|-4-4-4-4-4-4-4-4-4-4-4-4-4-4-4-4-4--5-5-5-5-5-5--2-2-2-2-2-2---5-5-5-5----|
A|---------------------------------------------------------------5-5-5-5----|
E|---------------------------------------------------------------3-3-3-3----|

   2. Guitar
E|--------------------------------------------------------------------------|
B|--------------------------------------------------------------------------|
G|--------------------------------------------------------------------------|
D|-5-5-5-5-5-5-5-5-5-5-5-5-5-5-5-5-5--6-6-6-6-6-6--2-2-2-2-2-2---5-5-5-5----|
A|-5-5-5-5-5-5-5-5-5-5-5-5-5-5-5-5-5--6-6-6-6-6-6--2-2-2-2-2-2---5-5-5-5----|
E|-3-3-3-3-3-3-3-3-3-3-3-3-3-3-3-3-3--4-4-4-4-4-4--0-0-0-0-0-0---3-3-3-3----|

   Verse
E|--------------------------------------------------------------------------|
B|--------------------------------------------------------------------------|
G|------------7-7-7-7-7------------------------7-7-7-------------7-7-7-7-7--|
D|-4-4-4-4-4--7-7-7-7-7--7-7-7-7-7--5-5-5-5-5--7-7-7--4-4-4-4-4--5-5-5-5-5--|
A|-4-4-4-4-4--5-5-5-5-5--7-7-7-7-7--5-5-5-5-5--5-5-5--4-4-4-4-4--5-5-5-5-5--|
E|-2-2-2-2-2-------------5-5-5-5-5--3-3-3-3-3---------2-2-2-2-2-------------|

E|--------------------------------------------------------------------------|
B|--------------------------------------------------------------------------|
G|-----------------------------------7-7-7-7-7------------------------7-7-7-|
D|-7-7-7-7-7--5-5-5-5-5---4-4-4-4-4--7-7-7-7-7--7-7-7-7-7--5-5-5-5-5--7-7-7-|
A|-7-7-7-7-7--5-5-5-5-5---4-4-4-4-4--5-5-5-5-5--7-7-7-7-7--5-5-5-5-5--5-5-5-|
E|-5-5-5-5-5--3-3-3-3-3---2-2-2-2-2-------------5-5-5-5-5--3-3-3-3-3--------|

E|--------------------------------------------------------------------------|
B|-----------------------------------10(12)-10(12)--------------------------|
G|------------7-7-7-7-7-----------------------------------------------------|
D|-4-4-4-4-4--7-7-7-7-7--7-7-7-7-7------------------------------------------|
A|-4-4-4-4-4--5-5-5-5-5--7-7-7-7-7------------------------------------------|
E|-2-2-2-2-2-------------5-5-5-5-5------------------------------------------|

   Chorus
E|---------------------------------------------------------------------------|
B|---------------------------------------------------------------------------|
G|-----------4-4-4-4-4--7-7-7-7-7------------------------------------------\-|
D|-4-4-4-4-4-4-4-4-4-4--7-7-7-7-7--7-7-7-7-7---------------------------------|x2
A|-4-4-4-4-4--2-2-2-2-2--5-5-5-5-5--7-7-7-7-7--------------------------------|
E|-2-2-2-2-2------------------------5-5-5-5-5--------------------------------|

   1. Guitar
E|--------------------------------------------------------------------------|
B|-7-7-7-7-7-7-7-7-7-7-7-7-7-7-7-7-7--8-8-8-8-8-8--5-5-5-5-5-5--------------|
G|--------------------------------------------------------------------------|
D|-4-4-4-4-4-4-4-4-4-4-4-4-4-4-4-4-4--5-5-5-5-5-5--2-2-2-2-2-2---2-2-2-2----|
A|---------------------------------------------------------------2-2-2-2----|
E|---------------------------------------------------------------0-0-0-0----|

   2. Guitar
E|--------------------------------------------------------------------------|
B|--------------------------------------------------------------------------|
G|--------------------------------------------------------------------------|
D|-5-5-5-5-5-5-5-5-5-5-5-5-5-5-5-5-5--6-6-6-6-6-6--2-2-2-2-2-2---2-2-2-2----|
A|-5-5-5-5-5-5-5-5-5-5-5-5-5-5-5-5-5--6-6-6-6-6-6--2-2-2-2-2-2---2-2-2-2----|
E|-3-3-3-3-3-3-3-3-3-3-3-3-3-3-3-3-3--4-4-4-4-4-4--0-0-0-0-0-0---0-0-0-0----|

   Outro
E|---------------------------------------------------------------------------|
B|--------------7-------------------9--------------------------------------\-|
G|---------------------------------------------------------------------------|
D|-4-4-4-4-7-7-7-7-7--2-2-2-2--9-9-9-9-9-------------------------------------|x7
A|-4-4-4-4-7-7-7-5-7--2-2-2-2--9-9-9-7-9-------------------------------------|
E|-2-2-2-2-5-5-5---5--0-0-0-0--7-7-7---7-------------------------------------|

E|------------------------------------------------------------------------||
B|------------------------------------------------------------------------||
G|--------------7---------------------------------------------------------||
D|-4-4-4-4-7-7-7-7-7-2-2-2-2-2-2-2-2-2-2-2--4-----------------------------||
A|-4-4-4-4-7-7-7-5-7-2-2-2-2-2-2-2-2-2-2-2--4-----------------------------||
E|-2-2-2-2-5-5-5--5--0-0-0-0-0-0-0-0-0-0-0--2-----------------------------||
            
Hard to play? Try these video lessons and learn fast. | Correct




comments powered by Disqus
↑ Back to top | Tablatures and chords are parodies/interpretations of the original songs. You may use it for private study, scholarship, research or language learning purposes only