» » »

Civ, Dont Got To Prove It Tabs (ver.1)

Artists:  A B C D E F G H I J K L M N O P Q R S T U V W X Y Z # 

Dont Got To Prove It Tabs (ver.1)

Civ Tabs
 Rating:
4/5 (4 votes)
Dont Got To Prove It lessons Tabs too difficult? Try these video lessons and learn fast
                INTRO & VERSE:
 A          G  A         D    G
-----------------------|--------------|
-----------------------|--------------| He might be using primary chords:
-----------------------|-7-7----------| A - X 0 2 2 2 0
-7----7---7-5--7----7--|-7-7--5--5-5--| G - 3 2 0 0 3 3
-7----7---7-5--7----7--|-5-5--5--5-5--| D - X X 0 2 3 2
-5----5---5-3--5----5--|------3--3-3--|

VERSE ENDING:
-0-0-0-0-0-0-0-0-|-----------------------|-----------------|
-0-0-0-0-0-0-0-0-|-----------------------|-----------------|
-1-1-1-1-1-1-1-1-|-----------------------|-----------------|
-2-2-2-2-2-2-2-2-|-7----7---7-5--7----7--|-----------------|
-2-2-2-2-2-2-2-2-|-7----7---7-5--7----7--|-0-0-3-3-4-4-3-3-|
-0-0-0-0-0-0-0-0-|-5----5---5-3--5----5--|-----------------|

CHORUS:         ________________ __________________ ________________
           1.         2.           3.
----------------|----------------|------------------|---------------|
--7--7-7-5-5--5-|----------------|------------------|---------------|
*-7--7-7-5-5--5-|-4-4-4-6--6-6--*|-6---6-4--6------*|-4-4-4-6--6-6--|
*-7--7-7-5-5--5-|-5-5-5-7--7-7--*|-7---7-5--7------*|-5-5-5-7--7-7--|
--5--5-5-3-3--3-|-5-5-5-7--7-7---|-7---7-5--7-------|-5-5-5-7--7-7--|
----------------|-3-3-3-5--5-5---|-5---5-3--5-------|-3-3-3-5--5-5--|
___________________________________
(3.)
-0-0-0-0-0-0-0-0-|-0-X-X-X-X-X-X-X-|
-0-0-0-0-0-0-0-0-|-0-X-X-X-X-X-X-X-|
-1-1-1-1-1-1-1-1-|-1-X-X-X-X-X-X-X-|
-2-2-2-2-2-2-2-2-|-2-X-X-X-X-X-X-X-|
-2-2-2-2-2-2-2-2-|-2-X-X-X-X-X-X-X-|
-0-0-0-0-0-0-0-0-|-0-X-X-X-X-X-X-X-|
            
Submit corrections

comments powered by Disqus
↑ Back to top | Civ Tabs for Dont Got To Prove It. Lyrics for acoustic guitar and electric guitar. Tablatures and chords are parodies/interpretations of the original songs. You may use it for private study, scholarship, research or language learning purposes only