» » »

Citipointe Live, Commission My Soul Tabs (ver.1)

Artists:  A B C D E F G H I J K L M N O P Q R S T U V W X Y Z # 

Commission My Soul Tabs (ver.1)

Citipointe Live Tabs
 Rating:
4/5 (4 votes)
Commission My Soul lessons Tabs too difficult? Try these video lessons and learn fast
1
                Tuning: Standard (E-A-D-G-B-E)

Verse 1 through chorus 1- No guitar

After chorus 1
e|--------------|
B|-9~---7~------|
G|-----------8~-|  x2  (There is a slight quarter-note delay as well)
D|--------------|
A|--------------|
E|--------------|

Verse 2- “Your life a living sacrifice”
e|------|
B|-7----|
G|----8-| (He does some pick scratching or sliding also)
D|------|
A|------|
E|------|

“My Life is an offering
e|------|
B|--9~--|
G|------| (slight quarter-note delay also)
D|------|
A|------|
E|------|

Pre chorus 2
e|--------------|
B|-9~---7~------|
G|-----------8~-|  x2  (There is a slight quarter-note delay as well)
D|--------------|
A|--------------|
E|--------------|

Chorus 2- This is where the guitar part gets a bit hard to figure out. This probably 
isn't the way they play it, but it sounds fine in a worship band.

The first time through the chorus, play the same three notes as the verse/PC:
e|--------------------------------------------------------------------------|
B|-9~--------------------7~-------------------------------------------------|
G|--------------------------------------------8~----------------------------|
D|--------------------------------------------------------------------------|
A|--------------------------------------------------------------------------|
E|--------------------------------------------------------------------------|
  Commission my soul... fire uncontrollable... this great cause...
  Open my eyes...       reason I'm alive...    ready now...

The second time through, the band gets a little louder, so the guitar adds more depth to 
the notes:  (you may also want to overdrive it more/quarter-note delay)
e|--------------------------------------------------------------------------|
B|--------------------------------------------------------------------------|
G|-13~-------------------11~-------------------8~---------------------------|
D|--x---------------------x--------------------x----------------------------|
A|-11~--------------------9~-------------------6~---------------------------|
E|--------------------------------------------------------------------------|
   Commission my soul... fire uncontrollable... this great cause...
   Open my eyes...       reason I'm alive...    ready now...
On the last chorus, the band goes all out, so there are some options here. You can keep 
doing the last part, do the full power chords, or if there are two elec. guitars, one 
can do the power chords an octave lower. My preferred way is this:

e|-----------------------------------------------------------------------------|
B|-----------------------------------------------------------------------------|
G|-13----13----13-----13----11----11--11---11--------8-----8------8----8-------|
D|--x-----x-----x------x----x------x---x----x--------x-----x------x----x-------|
A|-11----11----11-----11----9------9---9----9--------6-----6------6----6-------|
E|-----------------------------------------------------------------------------|
 Commission my soul with a fire uncontrollable for this great cause
 Open my eyes to the reason I'm alive, Oh Lord, I'm ready now
e|------------------------|
B|--8----8-----8----8-----|
G|--x----x-----x----x-----|
D|--6----6-----6----6-----|
A|------------------------|
E|------------------------|
to save the lost
I'll follow You

Fill:

In the fill, the lead singer sings “Follow You!” 3 times. I like to play each chord once 
with a quarter-note delay, but you could strum 4 times as well. The first and second 
time through, the last two strums (or delays) will be the start of the next repeat.

e|--------------------------------------------------------------------------|
B|--------------------------------------------------------------------------|
G|------13----13----13-----13----11----11--11---11-------8-----8------8----8|
D|-------x-----x-----x------x----x------x---x----x-------x-----x------x----x|
A|------11----11----11-----11----9------9---9----9-------6-----6------6----6|
E|--------------------------------------------------------------------------|
 Follow You!
     ...You!
e|------------------------|
B|--8----8-----8----8-----|
G|--x----x-----x----x-----|
D|--6----6-----6----6-----|
A|------------------------|
E|------------------------|
               Follow...

Bridge:
The bridge is another tricky spot to figure exactly what the guitarist is playing. I 
stick to the same things as before (in the verses, chorus, and fill), for ease for 
memorisation/simplicity. Feel free to experiment with this, it's not set in stone.

The bridge is repeated 5 times. Each time he sings “open the heavens wide” 3x, then 
“Pour out Your Spirit on us” once.

First time- No guitar

Second time-
e|--------------|
B|-9~---7~------|
G|-----------8~-|  x2
D|--------------|
A|--------------|
E|--------------|

Third time-

e|--------------------------------------------------------------------------|
B|--------------------------------------------------------------------------|
G|-13~-------------------11~--------------------8~--------------------------|
D|--x---------------------x---------------------x---------------------------|
A|-11~--------------------9~--------------------6~--------------------------|
E|--------------------------------------------------------------------------|

Fourth/fifth time

e|-----------------------------------------------------------------------------|
B|-----------------------------------------------------------------------------|
G|-----13----13----13-----13----11----11--11---11-----8-----8------8---8-------|
D|------x-----x-----x------x----x------x---x----x-----x-----x------x---x-------|
A|-----11----11----11-----11----9------9---9----9-----6-----6------6---6-------|
E|-----------------------------------------------------------------------------|

e|------------------------|
B|--8----8-----8----8-----|
G|--x----x-----x----x-----|   x2
D|--6----6-----6----6-----|
A|------------------------|
E|------------------------|
Feel free to experiment with the end of the fifth bridge, it's kind of a free-for -all at the end

That's it!
Have fun playing this, it's a great worship song!

– Dr. V

************************************

| /   slide up
| \   slide down
| ~   vibrato
| x   Mute note
************************************
            
Submit corrections

comments powered by Disqus
↑ Back to top | Citipointe Live Tabs for Commission My Soul. Lyrics for acoustic guitar and electric guitar. 1 Tablatures and chords are parodies/interpretations of the original songs. You may use it for private study, scholarship, research or language learning purposes only