» » »

Circle Jerks, When The *** Hits The Fan Bass tabs (ver.1)

Artists:  A B C D E F G H I J K L M N O P Q R S T U V W X Y Z # 

When The *** Hits The Fan Bass tabs (ver.1)

Circle Jerks Tabs
 Rating:
4/5 (4 votes)
When The *** Hits The Fan lessons Tabs too difficult? Try these video lessons and learn fast
                


The Circle Jerks
When the *** hits the fan


ok so this is pretty simple, just follow the guitar and you'll get it.


Verse:

G:---------------------------
D:---------------------------*
A:-----7----------55---------*
E:-------------7------55-----


Chorus:
    
G:--------------------------------
D:--------------------------------
A:----5----------3-----------5----
E:--------------------------------
   
G:--------------------------------
D:--------------------------------
A:----5----------3-----------0----
E:--------------------------------


so thats about it, again just follow the guitar and you'll be good, also,
this is only right for the faster non-acoustic version of the song

just a request to other punk rockers, POST CIRCLE JERKS TABS, there are
barely any online!!
            
Submit corrections

comments powered by Disqus
↑ Back to top | Circle Jerks Bass for When The *** Hits The Fan. Lyrics for acoustic guitar and electric guitar. Tablatures and chords are parodies/interpretations of the original songs. You may use it for private study, scholarship, research or language learning purposes only