» » »

Circle Jerks, Red Tape Bass tabs (ver.1)

Artists:  A B C D E F G H I J K L M N O P Q R S T U V W X Y Z # 

Red Tape Bass tabs (ver.1)

Circle Jerks Tabs
 Rating:
4.3/5 (6 votes)
Red Tape lessons Tabs too difficult? Try these video lessons and learn fast
                Circle Jerks
Group Sex
0:56

Tuning:
Standard
G D A E


Intro Fill:

G-----||
D-----||
A-----||
E-2-2-||


Verse:
G---------------------||
D---------------------||
A-2-2-2-2-0-0-0-0-----||
E-----------------2-2-||


Break into Chorus:

G-----------------||
D-----------------||
A-2-2-2-2-0-0-0-0-||
E-----------------||


Chorus:
                            
G---------------------------------||----------||
D---------------------------------||----------||
A-4-4-4-4-4-4-4-4-2-2-2-2-0-0-0-0-||----------||
E---------------------------------||-2-2--2-2-||


Solo Fill:                         

G---------------------------------||
D---------------------------------||
A-5-5-5-5-5-5-5-5-0-0-0-0-0-0-0-0-||
E---------------------------------||


Break into Verse:

G---------------------||
D---------------------||
A-5-5-5-5-5-5-5-5-----||
E-----------------2-2-||


Outro:

G---------------------------------||----------||
D---------------------------------||----------||
A-4-4-4-4-4-4-4-4-2-2-2-2-0-0-0-0-||----------||
E---------------------------------||-2-2--2-2-||



Greg
            
Submit corrections

comments powered by Disqus
↑ Back to top | Circle Jerks Bass for Red Tape. Lyrics for acoustic guitar and electric guitar. Tablatures and chords are parodies/interpretations of the original songs. You may use it for private study, scholarship, research or language learning purposes only