» » »

Operation Tabs (ver.1)

Artists:  A B C D E F G H I J K L M N O P Q R S T U V W X Y Z # 

Operation Tabs (ver.1)

Circle Jerks
Rating:
4/5 (3 votes)

Hard to play? Try these video lessons and learn fast.
                -------------------------------------------------------------------------------
                             CIRCLE JERKS - Operation
-------------------------------------------------------------------------------

Tuning:EADGBe

Intro
e|----------------------------------------------------------------|
B|----------------------------------------------------------------|
G|----6--6-6-6-6-6---3--3-3-3-3-3---1--1-1-1-1-1---3--3-3-3-3-3---|
D|----5--5-5-5-5-5---4--4-4-4-4-4---2--2-2-2-2-2---4--4-4-4-4-4---|
A|----5--5-5-5-5-5---4--4-4-4-4-4---2--2-2-2-2-2---4--4-4-4-4-4---|
E|----4--4-4-4-4-4---2--2-2-2-2-2---0--0-0-0-0-0---2--2-2-2-2-2---|x2

Verse
e|-------------------------------------------|
B|-------------------------------------------|
G|-------------------------------------------|
D|-------------------------------------------|
A|--66666666--44444444--22222222--44444444---|
E|--44444444--22222222--00000000--22222222---|x2
palm mute

Chorus
e|-------------------------------------------------|
B|-------------------------------------------------|
G|--6--6-6-6-6--6--6-6-6-6---6-6-6-6-6\8-8-8-8-8---|
D|--6--6-6-6-6--6--6-6-6-6---7-7-7-7-7\9-9-9-9-9---|
A|--4--4-4-4-4--4--4-4-4-4---7-7-7-7-7\9-9-9-9-9---|
E|---------------------------5-5-5-5-5\7-7-7-7-7---|

e|-------------------------------------------------|
B|-------------------------------------------------|
G|--6--6-6-6-6--6--6-6-6-6---6-6-6-6-6\5-5-5-5-5---|
D|--6--6-6-6-6--6--6-6-6-6---7-7-7-7-7\6-6-6-6-6---|
A|--4--4-4-4-4--4--4-4-4-4---7-7-7-7-7\6-6-6-6-6---|
E|---------------------------5-5-5-5-5\4-4-4-4-4---|


Versex2
Chorus w/ extended end
Versex2
Chorus
Versex2
Chorus x2 w/ extended end

e|-----------------------------------------------|--------------|
B|-----------------------------------------------|--------------|
G|--6--6-6-6-6--6--6-6-6-6---6-6-6-6-6\5-5-5-5-5-|-5--5--5--5---|
D|--6--6-6-6-6--6--6-6-6-6---7-7-7-7-7\6-6-6-6-6-|-6--6--6--6---|
A|--4--4-4-4-4--4--4-4-4-4---7-7-7-7-7\6-6-6-6-6-|-6--6--6--6---|
E|---------------------------5-5-5-5-5\4-4-4-4-4-|-4--4--4--4---|x2(Extended end part)

Good song, learned it by ear in like a minute. It's better than the other tab on here, so rate it.
            
Hard to play? Try these video lessons and learn fast. | Correct




comments powered by Disqus
↑ Back to top | Tablatures and chords are parodies/interpretations of the original songs. You may use it for private study, scholarship, research or language learning purposes only