» » »

Circle Jerks, Making The Bombs Bass tabs (ver.1)

Artists:  A B C D E F G H I J K L M N O P Q R S T U V W X Y Z # 

Making The Bombs Bass tabs (ver.1)

Circle Jerks Tabs
Rating:
0/5 (0 votes)
Making The Bombs lessons Tabs too difficult? Try these video lessons and learn fast
                This is an easy tab but have fun.

 Intro
G|------------------------------|
D|-------------3-2-0------------|
A|-3-2-0-5-3-2-------3-2-0------|
E|-------------------------0----|

 Verse1 X2
G|----------------------------------|
D|----------------------------------|
A|----------------------------------|
E|-00000000000000003333333366655533-|

 Pre-Chorus
G|-------------------------|----------------|
D|-------------------------|----------------|
A|-0--0--0--00-3-0-5-0-3-0-|-0--0--2--3-2---|
E|-------------------------|--------------3-|

 Chorus
G|-------------|---------------------|------------|
D|-------------|---------------------|------------|
A|-------5-----|-------------3-2-0---|-------5----|
E|-0--------5--|-0---0-2-3-0-------3-|-0--------5-|

G|-----------------|
D|-----------------|
A|-----------------|
E|-0000000000000000|

 Verse2 same as verse 1

 Chorus

 Bridge X2
G|---------------------|
D|---------------------|
A|-------------3--2--5-|
E|-000000000230--------|

 Chorus ( the first bar twice)

 Outro X6
G|---------------------------------|
D|-------------------------320-----|
A|---------------2-320-532-----320-|
E|-0-0-2-3-3-5-5-------------------|
            

comments powered by Disqus
↑ Back to top | Circle Jerks Bass for Making The Bombs. Lyrics for acoustic guitar and electric guitar. Tablatures and chords are parodies/interpretations of the original songs. You may use it for private study, scholarship, research or language learning purposes only