» » »

I Just Want Some Skank Bass tabs (ver.1)

Artists:  A B C D E F G H I J K L M N O P Q R S T U V W X Y Z # 

I Just Want Some Skank Bass tabs (ver.1)

Circle Jerks
Rating:
0/5 (0 votes)

Hard to play? Try these video lessons and learn fast.
                Circle Jerks

G|-----------------|-----------------|
D|-----------------|-----------------|
A|-5-5-6-6-5-5-7-7-|-5-5-6-6-5-5-7-7-|
E|-----------------|-----------------|x2

G|-----------|-----------|
D|-----------|-----------|
A|------7777-|------7777-|
E|-5555------|-5555------|

G|-----------------|-----------------|
D|-----------------|-----------------|
A|-5-5-6-6-5-5-7-7-|-5-5-6-6-5-5-7-7-|
E|-----------------|-----------------|x2

|-----|
|-----|
|--5--|
|-----|

guitar plays C# four times then

G|---------------------------------|
D|---------------------------------|
A|-4-4-4-4---------4-4-4-4---------|
E|---------6-6-6-6---------6-6-6-6-|x2

-----------|-----------|
-----------|-----------|
-----------|-----------|
-6-6-6-6-4-|-6-6-6-6-4-|x2

---------------------------------|
---------------------------------|
-4-4-4-4---------4-4-4-4---------|
---------6-6-6-6---------6-6-6-6-|x2

-----------|-----------|
-----------|-----------|
-----------|-----------|
-6-6-6-6-4-|-6-6-6-6-4-|x2


|-----------------|-----------------|
|-----------------|-----------------|
|-5-5-6-6-5-5-7-7-|-5-5-6-6-5-5-7-7-|
|-----------------|-----------------|x3



thanx
            
Hard to play? Try these video lessons and learn fast. | Correct




comments powered by Disqus
↑ Back to top | Tablatures and chords are parodies/interpretations of the original songs. You may use it for private study, scholarship, research or language learning purposes only