» » »

Circle Jerks, High Price On Our Heads Bass tabs (ver.1)

Artists:  A B C D E F G H I J K L M N O P Q R S T U V W X Y Z # 

High Price On Our Heads Bass tabs (ver.1)

Circle Jerks Tabs
 Rating:
4/5 (4 votes)
High Price On Our Heads lessons Tabs too difficult? Try these video lessons and learn fast
                Riff 1 x2 
G|----------------------------| 
D|----------------------------| 
A|---------33------------33---| 
E|--5-5-3-3--3--555-5-3-3--3--| 

Riff 2 x4 
G|-------------------| 
D|-------------------| 
A|-------7777-5553---| 
E|--5555----------3--| 

Riff 1 x3 
Riff 3 x1 
G|-------------------------------------------| 
D|-------------------------------------------| 
A|--0000-3333-0000------0000-3333-0000-5555--| 
E|-----------------3333----------------------| 

Riff 1 x1 
Riff 2 x4 
Riff 1 x3 
Riff 3 x1 
Riff 4 x1 
G|---------------------------------------| 
D|---------------------------------------| 
A|-5-5-557--5-55557-7--555-7-77-5557777--| 
E|---------------------------------------| 

Riff 5 x2 
G|-------------------| 
D|-------------------| 
A|------3--3-----3---| 
E|--5-33----55-33----| 

Riff 1 x1 
Riff 2 x6 
Riff 6 x2 (Solo) 
G|-------------------| 
D|-------------------| 
A|-------9999-7775---| 
E|--7777----------5--| 

Riff 1 x3 
Riff 3 x1 
Riff 4 x1
            
Submit corrections

comments powered by Disqus
↑ Back to top | Circle Jerks Bass for High Price On Our Heads. Lyrics for acoustic guitar and electric guitar. Tablatures and chords are parodies/interpretations of the original songs. You may use it for private study, scholarship, research or language learning purposes only