» » »

Droping The Bombs Bass tabs (ver.1)

Artists:  A B C D E F G H I J K L M N O P Q R S T U V W X Y Z # 

Droping The Bombs Bass tabs (ver.1)

Circle Jerks
Rating:
0/5 (0 votes)

Hard to play? Try these video lessons and learn fast.
                Making the Bombs

Intro/
G------------------------------|
D--------------3-2-0-----------|
A-3-2-0-5-3-2--------3-2-0-----|
E----------------------------0-|

Verse
 a)
G---------------------|
D------------------22-|  he does that a few times then
A---------------------|
E-000000000000000-----|
b)
G-------------|
D-------------|
A-------------|
E-3---6-5-3---|

Then go back to a)

chorus

There gonna rock
G---
D---
A-0
E---
Keep hitting that A

“six feet under..”
G------------------|
D------------------|
A-2-2-222-333-2----|
E----------------3-|

Making the bombs

G---------------------------------------------------------------|
D---------------------------------------------------------------|
A-----------------------5-------------------------0-3-2-0-------|
E-0-----------------------5-0000000000-2-3---------------3------|

Then:
G------------------------------------|
D------------------------------------|
A----------------5-------------------|
E-0----------------5-0000000000------|


“Making the world a better place” part

G------------------------------|
D-22222222---------------------|
A--------------------3-2-0-----|
E---------------0235-----------|

After that you go

G-------------------------|
D-------------------------|
A--------5------------5---|
E-0--------5---0--------5-|


Solo


G-------------------------------------|
D----------------------------320------|
A-------------0-0-2-320-532------320--|
E-0-0-2-3-3---------------------------|

End

G------------------------------------|
D----------320-------------320-------|
A-320-532-----320-320-532-----320----| let ring out
E------------------------------------|

after he says that thing they go

G-------|
D-------|
A-------|
E-00-000

sorry for not making the rythem realy out there but it's hard with tabs and im pretty 
you should be able to figure it out

have fun

_terp
            
Hard to play? Try these video lessons and learn fast. | Correct




comments powered by Disqus
↑ Back to top | Tablatures and chords are parodies/interpretations of the original songs. You may use it for private study, scholarship, research or language learning purposes only