» » »

Beverly Hills Bass tabs (ver.1)

Artists:  A B C D E F G H I J K L M N O P Q R S T U V W X Y Z # 

Beverly Hills Bass tabs (ver.1)

Circle Jerks
Rating:
5/5 (3 votes)

Tabs too difficult? Try these video lessons and learn fast.
                intro/first part

G----------------------------|
D----------------------------|
A------------------77----4-4-|
E-4-4-4-4-4-4-4-4-----7------|

Second part

G--------------------------------------------------------------------|
D--------------------------------------------------------------------|
A--------------------------------------------------------------------|
E-2-2-2-2-2-2-2-2-4-4-4-4-4-4-4-4-2-2-2-2-2-2-2-2-4-4-4-4-4-4-4-4----|

then:

G--------------------------------------------------------------------|
D--------------------------------------------------------------------|
A--------------------------------------------------------------------|
E-0-0-0-0-0-0-0-0-2-2-2-2-2-2-2-2-0-0-0-0-0-0-0-0-2-2-2-2-2-2-2-2----|

then: back to first part

end

 "beverly hills cetury city"

G--------------------|
D--------------------|
A-----------7-7-7-7--|
E-4-4-4-4------------|
            
Tabs too difficult? Try these video lessons and learn fast.




comments powered by Disqus
↑ Back to top | Tablatures and chords are parodies/interpretations of the original songs. You may use it for private study, scholarship, research or language learning purposes only