» » »

Circle Jerks, Beat Me Senseless Tabs (ver.1)

Artists:  A B C D E F G H I J K L M N O P Q R S T U V W X Y Z # 

Beat Me Senseless Tabs (ver.1)

Circle Jerks Tabs
 Rating:
4/5 (4 votes)
Beat Me Senseless lessons Tabs too difficult? Try these video lessons and learn fast
                
Tuning: Standard


Intro/Verse:

e|---------------------------------------------------------------------------|
B|---------------------------------------------------------------------------|
G|--9-9-7-9-9-9-7-9---7-7-5-7-7-7-5-7----------------------------------------|
D|--9-9-7-9-9-9-7-9---7-7-5-7-7-7-5-7----------------------------------------|
A|--7-7-7-7-7-7-7-7---5-5-5-5-5-5-5-5----------------------------------------|
E|---------------------------------------------------------------------------|


Chorus:

"Beat me Senseless!"
e|---------------------------------------------------------------------------|
B|---------------------------------------------------------------------------|
G|---------------------------------------------------------------------------|
D|--7--9--7--9--5--5-5-5-5-5-5-5-5-------------------------------------------|
A|--7--9--7--9--5--5-5-5-5-5-5-5-5-------------------------------------------|
E|--5--7--5--7--3--3-3-3-3-3-3-3-3-------------------------------------------|
                   x x x x x x x x 

Repeat Verse


Bridge:

"Pain, no gain come on and do it again"
e|---------------------------------------------------------------------------|
B|---------------------------------------------------------------------------|
G|---------------------------------------------------------------------------|
D|--9-9-9-9--10--7-7-7-7--2-2-2-2--3--2-2-2-2--------------------------------|
A|--9-9-9-9--10--7-7-7-7--2-2-2-2--3--2-2-2-2--------------------------------|
E|--7-7-7-7--8---5-5-5-5--0-0-0-0--1--0-0-0-0--------------------------------|


Solo (play over the verse):

Note: Where I have written 15^^^^^^^15, you have to hit the 15, bend it 
up to the 17 and hold it while you hit the 15 on the high E string, and then 
hit the bent 15 again while bringing it down.

e|--------------------------------------------------------15-----------------|
B|---------------------------------15^17-15^17-15^17-15^^^^^^^15-------------|
G|--12--11--12------12--14--14^16--------------------------------------------|
D|--------------14-----------------------------------------------------------|
A|---------------------------------------------------------------------------|
E|---------------------------------------------------------------------------|

e|---------------------------------------------------------------------------|
B|--12--15--12---------------------------------------------------------------|
G|--------------14--12----12------12------12------12-------------------------|
D|----------------------------14------14------14------14---------------------|
A|---------------------------------------------------------------------------|
E|---------------------------------------------------------------------------|

Repeat Verse, Bridge, and Chorus.

End with this:

e|---------------------------------------------------------------------------|
B|---------------------------------------------------------------------------|
G|---------------------------------------------------------------------------|
D|---------------------------------------------------------------------------|
A|---------------------------------------------------------------------------|
E|--3-0-3-5-6-5--3-0-3-6-5-3-0-----------------------------------------------|


| /  slide up
| \  slide down
| h  hammer-on
| p  pull-off
| ~  vibrato
| +  harmonic
| x  Mute note
| ^  Bend up
            
Submit corrections

comments powered by Disqus
↑ Back to top | Circle Jerks Tabs for Beat Me Senseless. Lyrics for acoustic guitar and electric guitar. Tablatures and chords are parodies/interpretations of the original songs. You may use it for private study, scholarship, research or language learning purposes only