» » »

Circle Jerks, Back Against The Wall Tabs (ver.1)

Artists:  A B C D E F G H I J K L M N O P Q R S T U V W X Y Z # 

Back Against The Wall Tabs (ver.1)

Circle Jerks Tabs
Rating:
5/5 (2 votes)
Back Against The Wall lessons Tabs too difficult? Try these video lessons and learn fast
                
p means pull off
~ means ring

intro
E--3p2------------3p2---5~~~~~--|
B------3--------3-----3---------|
G--------2~~~-2-----------------|
D-------------------------------|
A-------------------------------|
E-------------------------------|

verse
E------------------------|
B------------------------|
G------------------------|
D-------1212---99---77---|
A--99---1010---77---55---|
E--77--------------------|

chorus
E------------------------------------------------------------------------|
B------------------------------------------------------------------------|
G------------------------------------------------------------------------|
D------------------------------------------------------------------------|
A--2222222222222222-5555555555555555-2222222222222222-55555555-77777777--|
E--0000000000000000-3333333333333333-0000000000000000-33333333-55555555--|

fast verse
E---------------------------|
B---------------------------|
G---------------------------|
D-------12121212-9999-7777--|
A--9999-10101010-7777-5555--|
E--7777---------------------|

timing:
intro................1x
verse................6x
chorus...............1x
verse................4x
chorus...............1x
solo.................?
fast verse...........4x
chorus(play faster)..1x


i dont know the solo but it sounds pretty easy. ill probably learn it soon and put it up 
time. enjoy
            

comments powered by Disqus
↑ Back to top | Circle Jerks Tabs for Back Against The Wall. Lyrics for acoustic guitar and electric guitar. Tablatures and chords are parodies/interpretations of the original songs. You may use it for private study, scholarship, research or language learning purposes only