>
 >
Were All Theives

Were All Theives Guitar Tabs

Circa Survive - Were All Theives chords, tabs, tablatures, lyrics

Guitar lessons | Add/correct | Request | Top 50 tabs Artists:  A B C D E F G H I J K L M N O P Q R S T U V W X Y Z 0-9

Were All Theives Guitar Tabs – Circa Survive

CD, Sheet music, Poster

Do you like Were All Theives? Share with your friends now
Tabs
WE'RE ALL THIEVES
                          As recorded by Circa Survive
                          (From the 2005 Album JUTURNA)

Words and Music by Circa Survive
Arranged by Circa Survive

Gtr I (D A D G B E) - 'Untitled'
Gtr II (D A D G B E) - 'Untitled'
Gtr III (D A D G B E) - 'Untitled'
Gtr IV (D A D G B E) - 'Untitled'
Gtr V (D A D G B E) - 'Untitled'

 Intro
  Q=144
  D#sus2
 7/4
  Gtr I
   E  E E E  E E  E  S S E E  S S E Q
|-----------------------------------6\--|
|---------------------------------7-----|
|-----------------------------3s8-------|
|-----8-----------9--8h9p8--------------|
|--6----9-8--9-8-----------9p-----------|
|---------------------------------------|
|
| Gtr II
|  Q.     Q.     +W
|---------------------------------------|
|-^6------6------(6)--------------------|
|-^8------8------(8)--------------------|
|-^8------8------(8)--------------------|
|-^6------6------(6)--------------------|
|---------------------------------------|


  C#
   E  E E E  E E  E  S S E E  S S E Q
|-----------------------------------6\---|
|---------------------------------7------|
|-----------------------------3s8--------|
|-----8-----------9--8h9p8---------------|
|--6----9-8--9-8-----------9p------------|
|----------------------------------------|
|
|  Q.     Q.     +W
|----------------------------------------|
|-^6------6------(6)---------------------|
|-^6------6------(6)---------------------|
|-^6------6------(6)---------------------|
|-^4------4------(4)---------------------|
|----------------------------------------|


  F#sus4/B                                A#
                                         7/4
   E  E E E  E E  E  S S E E  S S E Q      E  E E E  E E  E  S S E E  E  Q.
|-----------------------------------6\--|-------------------------------------|
|---------------------------------7-----|-------------------------------------|
|-----------------------------3s8-------|-----------------------------x-10\---|
|-----8-----------9--8h9p8--------------|-----8-----------9--8h9p8------------|
|--6----9-8--9-8-----------9p-----------|--6----9-8--9-8-----------9p---------|
|---------------------------------------|-------------------------------------|
|
|  Q.     Q.     +W                        Q.     Q.     +W
|---------------------------------------|-------------------------------------|
|-^2------2------(2)--------------------|-^3------3------(3)------------------|
|-^4------4------(4)--------------------|-^3------3------(3)------------------|
|-^4------4------(4)--------------------|-^3------3------(3)------------------|
|-^2------2------(2)--------------------|-^1------1------(1)------------------|
|---------------------------------------|-------------------------------------|


   Verse
    D#m                E#m             D#m
     E E E E E E E S S E E  S S E Q    E   E E E E E E S S E E  S S E Q
||--------------------------------6\-|--------------------------------6\---|
||o-----------------------------7----|------------------------------7------|
||--------------------------3s8------|--------------------------3s8--------|
||-----8---------9-8h9p8-------------|-----8---------9-8h9p8---------------|
||o--6---9-8-9-8---------9p----------|-6-----9-8-9-8---------9p------------|
||-----------------------------------|-------------------------------------|
|
|    W                 Q    Q     Q    W..
||-----------------------------------|-------------------------------------|
||o----------------------------------|-------------------------------------|
||-----------------------------------|-------------------------------------|
||--/4-----------------6----6-----6s=|=4-----------------------------------|
||o-/6-----------------8----8-----8s=|=6-----------------------------------|
||-----------------------------------|-------------------------------------|


  C#                                       N.C.(D#5/B) N.C.(A#)
 8/4                                      3/4
  E E E E E E E S S  E  E  S S E E E E E   E q  q  E   E q  q  E
|--------------------------------6-------|-----------|--------------||
|------------------------------7---7-----|-----------|---------7\--o||
|--------------------------3s8-------6h8-|-8-8--8--8-|-7-7--7-------||
|---8---------9-8h9p=8-------------------|-----------|--------------||
|-6---9-8-9-8-----------9p---------------|-----------|-------------o||
|----------------------------------------|-----------|--------------||
|
| W                 +Q     Q     Q   Q     E Q  Q  E   E Q  Q  E
|----------------------------------------|-----------|--------------||
|----------------------------------------|-----------|-------------o||
|--------------------------6-------------|------3----|------3-------||
|-3-----------------(3)----------3-------|---1-----1-|---0-----1----||
|-4-----------------(4)--------------4---|-2---------|-1-----------o||
|----------------------------------------|-----------|--------------||


  E q  q  E    E q  q  E    E q  q  E
|------------|------------|------------|
|---------7\-|---------6\-|---------6\-|
|-8-8--8-----|-7-7--7-----|-7-7--7-----|
|------------|------------|------------|
|------------|------------|------------|
|------------|------------|------------|
|
| E Q  Q  E    E Q  Q  E    E Q  Q  E
|------------|------------|------------|
|------------|------------|------------|
|------3-----|------3-----|------3-----|
|---1-----1--|---0-----1--|---0-----1--|
|-2----------|-1----------|-1----------|
|------------|------------|------------|


 Pre-Chorus
  N.C.(D#5/B)               N.C.(A#7)
  Gtr I
  E E E  Q.      +H.        E E E Q.     +H.
|-------------|-----------|------------|--------|
|-------11----|-(11)------|-------9----|-(9)----|
|---8---------|-----------|---7--------|--------|
|-9---9-------|-----------|-8---8------|--------|
|-------------|-----------|------------|--------|
|-------------|-----------|------------|--------|


  N.C.(D#5/B)                              N.C.(A#7)
  Gtr I
   E  E  E  Q.        +H.                   E  E  E Q.      +H.
|------------------|---------------------|---------------|---------|
|----------11------|-(11)----------------|----------9----|--(9)----|
|-----8------------|---------------------|-----7---------|---------|
|--9-----9---------|---------------------|--8-----8------|---------|
|------------------|---------------------|---------------|---------|
|------------------|---------------------|---------------|---------|
|
| Gtr II
|  E  E  E  Q    E     Q     E   Q    E     E  E  H         +H.
|------------------|---------------------|---------------|---------|
|------------------|---------------------|---------------|---------|
|------------------|--11---(11)-13--(13)-|-11-11s10------|-(10)----|
|-11-11s13-13---13-|---------------------|---------------|---------|
|------------------|---------------------|---------------|---------|
|------------------|---------------------|---------------|---------|


 Chorus
  N.C.
  Gtr III
    ~~~~    ~~~~~~~~~~~~     ~~~~~~~~~~~     ~~~~~~~~~~~~      ~~~~
    Q    E  Q.       Q    E  Q.      Q    E  Q.       Q    E   Q   E
|----------------|----------------|---------------|------------------|
|-/16---19-16----|--16---19-16----|-16---19-16----|--16---19--16\--x-|
|----------------|----------------|---------------|------------------|
|----------------|----------------|---------------|------------------|
|----------------|----------------|---------------|------------------|
|----------------|----------------|---------------|------------------|
|
| Gtr IV
|   TP               TP              TP               TP
|   H.              +H.              H.              +Q.       Q.
|----------------|----------------|---------------|------------------|
|----------------|----------------|---------------|------------------|
|--10------------|-(10)-----------|-11------------|-(11)-----/13\----|
|---x------------|--(x)-----------|--x------------|--(x)------/x\----|
|---8------------|--(8)-----------|--9------------|--(9)-----/11\----|
|----------------|----------------|---------------|------------------|


   ~~~     ~~~~~~~~~~~     ~~~~~~~~~~~     ~~~~~~~~~~~~     ~~~
   Q    E  Q.      Q    E  Q.      Q    E  Q.       Q    E  Q.
|---------------|---------------|----------------|---------------|
|-11---14-11----|-11---14-11----|-11---14-11-----|-11---14-11----|
|---------------|---------------|----------------|---------------|
|---------------|---------------|----------------|---------------|
|---------------|---------------|----------------|---------------|
|---------------|---------------|----------------|---------------|
|
|          TP      TP                               TP
|  E E  E  Q.     +H.              E Q     Q   E    H.
|---------------|---------------|----------------|---------------|
|---------------|---------------|----------------|---------------|
|--6s8--8--8----|-(8)-----------|--6s8-----8---8-|--8------------|
|--x-x--x--x----|-(x)-----------|--x-x-----x---x-|--x------------|
|--4s6--6--6----|-(6)-----------|--4s6-----6---6-|--6------------|
|---------------|---------------|----------------|---------------|


    ~~~~    ~~~~~~~~~~~~     ~~~~~~~~~~~     ~~~~~~~~~~~~      ~~~~
    Q    E  Q.       Q    E  Q.      Q    E  Q.       Q    E   Q   E
|----------------|----------------|---------------|------------------|
|-/16---19-16----|--16---19-16----|-16---19-16----|--16---19--16\--x-|
|----------------|----------------|---------------|------------------|
|----------------|----------------|---------------|------------------|
|----------------|----------------|---------------|------------------|
|----------------|----------------|---------------|------------------|
|
|   TP               TP              TP               TP
|   H.              +H.              H.              +Q.       Q.
|----------------|----------------|---------------|------------------|
|----------------|----------------|---------------|------------------|
|--10------------|-(10)-----------|-11------------|-(11)-----/13\----|
|---x------------|--(x)-----------|--x------------|--(x)------/x\----|
|---8------------|--(8)-----------|--9------------|--(9)-----/11\----|
|----------------|----------------|---------------|------------------|


   ~~~     ~~~~~~~~~~~     ~~~~~~~~~~~     ~~~~~~~~~~~~
   Q    E  Q.      Q    E  Q.      Q    E  Q.       H     Q
|---------------|---------------|----------------|-----------|
|-11---14-11----|-11---14-11----|-11---14-11-----|-11\-------|
|---------------|---------------|----------------|-----------|
|---------------|---------------|----------------|-----------|
|---------------|---------------|----------------|-----------|
|---------------|---------------|----------------|-----------|
|
|          TP      TP                               TP
|  E E  E  Q.     +H.              E Q     Q   E    H.
|---------------|---------------|----------------|-----------|
|---------------|---------------|----------------|-----------|
|--6s8--8--8----|-(8)-----------|--6s8-----8---8-|--8--------|
|--x-x--x--x----|-(x)-----------|--x-x-----x---x-|--x--------|
|--4s6--6--6----|-(6)-----------|--4s6-----6---6-|--6--------|
|---------------|---------------|----------------|-----------|


    N.C.
     H.         Q    E E  E E    Q.    Q.     Q.   Q.
||-----------|----------------|-------------|------------|
||o-11-------|--9------9----9-|--6-----7----|------------|
||-----------|------11---11---|-------------|-8----6-----|
||-----------|----------------|-------------|------------|
||o----------|----------------|-------------|------------|
||-----------|----------------|-------------|------------|
|
|    Q  H      +H.               Q.    Q.     Q.   Q.
||-----------|----------------|-------------|------------|
||o----------|----------------|-------------|------------|
||---6s=8----|-(8)------------|-10----11----|-8----6-----|
||-----------|----------------|-------------|------------|
||o----------|----------------|-------------|------------|
||-----------|----------------|-------------|------------|


   H.         Q    E E  E E    Q.    Q.      Q.        Q.
|----------|----------------|-------------|--------------------||
|-11-------|--9------9----9-|--6-----7----|-------------------o||
|----------|------11---11---|-------------|--8---------6-------||
|----------|----------------|-------------|--------------------||
|----------|----------------|-------------|-------------------o||
|----------|----------------|-------------|--------------------||
|
|  Q  H      +H.               Q.    Q.      E   E  E  E   Q
|----------|----------------|-------------|--------------------||
|----------|----------------|-------------|-----------11------o||
|--6s=8----|-(8)------------|-10----11----|-10--11-10-----11---||
|----------|----------------|-------------|--------------------||
|----------|----------------|-------------|-------------------o||
|----------|----------------|-------------|--------------------||


 Verse
  N.C.
 7/4
  Gtr I
    E  E E E E E E S S E  E  S S E Q
|----------------------------------6\--|
|--------------------------------7-----|
|----------------------------3s8-------|
|------8---------9-8h9p8---------------|
|---6----9-8-9-8----------9p-----------|
|--------------------------------------|
|
| Gtr IV
|   >
|  +W                  H.
|--------------------------------------|
|--------------------------------------|
|-(11)---------------------------------|
|--------------------------------------|
|--------------------------------------|
|--------------------------------------|


   E  E E E E E E S S E E  S S E  Q     E  E E E E E E S S E E  S S E Q
|---------------------------------6\--|-------------------------------6\---|
|------------------------------7------|-----------------------------7------|
|--------------------------3s8--------|-------------------------3s8--------|
|-----8---------9-8h9p8---------------|----8---------9-8h9p8---------------|
|--6----9-8-9-8---------9p------------|-6----9-8-9-8---------9p------------|
|-------------------------------------|------------------------------------|
|
|  W.                             Q     W.                            E  E
|-------------------------------------|------------------------------------|
|-------------------------------------|------------------------------------|
|-------------------------------------|------------------------------------|
|--------------------------------/9---|-8-----------------------------8--9-|
|-/6----------------------------------|------------------------------------|
|-------------------------------------|------------------------------------|


                                           N.C.(E#m7/Ab)  F#N.C.(C)
 8/4                                      3/4
  E E E E E E E S S  E  E  S S E E E E E   E q   q   E    E  q   q   E
|--------------------------------6-------|--------------|----------------|
|------------------------------7---7-----|--------------|------------7\--|
|--------------------------3s8-------6h8-|-8-8---8---8--|-7--7---7-------|
|---8---------9-8h9p=8-------------------|--------------|----------------|
|-6---9-8-9-8-----------9p---------------|--------------|----------------|
|----------------------------------------|--------------|----------------|
|
| W                 +Q     Q     Q   Q     E E E Q   E    E  E E Q   E
|----------------------------------------|--------------|----------------|
|--------------------------9-------------|-------6--(6)-|--------7--(7)--|
|--------------------------------6-------|---8----------|---10-----------|
|-6-----------------(6)--------------6---|-6---6--------|-8----8---------|
|----------------------------------------|--------------|----------------|
|----------------------------------------|--------------|----------------|


  N.C.
 7/4
   Q.   E E E W            Q.   E E E W
|------------------------|-----------------------|
|-------7-6--------------|------7-6--------------|
|-----------6------------|----------6------------|
|-------------8----------|------------6----------|
|------------------------|-----------------------|
|------------------------|-----------------------|
|
|  W.                 Q    W.                E E
|------------------------|-----------------------|
|------------------------|-----------------------|
|------------------------|-----------------------|
|--------------------/9--|-8-----------------8-9-|
|-/6---------------------|-----------------------|
|------------------------|-----------------------|


                                 N.C.(D#5/B)         N.C.(A#)
 8/4                            3/4
  Q.   E E E E E  W               Q    E   Q    E    Q    E   Q    E
|------------------------------|-----------6---(6)-|-------------------|
|-----------------6------------|-------------------|-6---(6)-----------|
|--------3h4p3-----------------|--6---(6)----------|----------6---(6)--|
|------4-------4---------------|-------------------|-------------------|
|------------------------------|-------------------|-------------------|
|------------------------------|-------------------|-------------------|
|
| W              +Q   Q  Q  Q     E E  E   Q    E    E E  E   Q    E
|------------------------------|-------------------|-------------------|
|---------------------9--------|-11-------11--(11)-|---------11--(11)--|
|------------------------6-----|--8-8--------------|---7---------------|
|-6--------------(6)--------6--|--9----9-----------|-8----8------------|
|------------------------------|-------------------|-------------------|
|------------------------------|-------------------|-------------------|


  N.C.(D#5/B)      N.C.(A#)
  E E E  Q    E    E E E  Q    E    E E E  Q    E
|----------------|----------------|----------------|
|--------7-------|--------6-------|--------6-------|
|---8---------8--|---7---------7--|---7---------7--|
|-9---9----------|-8---8----------|-8---8----------|
|----------------|----------------|----------------|
|----------------|----------------|----------------|
|
| E E E  Q    E    E E E  Q    E    E E E  Q    E
|----------------|----------------|----------------|
|-------11--(11)-|-------11--(11)-|-------11--(11)-|
|---8------------|---7------------|---7------------|
|-9---9----------|-8---8----------|-8---8----------|
|----------------|----------------|----------------|
|----------------|----------------|----------------|


 Bridge
  N.C.(D#5/B)
   E E   E        Q       +E          +H.
|----------------------------------|-----------|
|----------------11------(11)b11.5r|=(11)------|
|----8-----------------------------|-----------|
|--9-----9-------------------------|-----------|
|----------------------------------|-----------|
|----------------------------------|-----------|
|
|  Q    +Q           +Q               +H.
|----------------------------------|-----------|
|-11---(11)b11.5r===(11)-----------|-(11)------|
|----------------------------------|-----------|
|----------------------------------|-----------|
|----------------------------------|-----------|
|----------------------------------|-----------|


  N.C.(A#7)
   E E   E       Q      +E         +H.
|-------------------------------|---------|
|----------------9------(9)b9.5r|==(9)----|
|----7--------------------------|---------|
|--8-----8----------------------|---------|
|-------------------------------|---------|
|-------------------------------|---------|
|
|  Q    +Q          +Q             +H.
|-------------------------------|---------|
|-11---(11)b11.5r==(11)---------|-(11)----|
|-------------------------------|---------|
|-------------------------------|---------|
|-------------------------------|---------|
|-------------------------------|---------|


  N.C.(D#5/B)
   E E   E        Q       +E          +H.
|----------------------------------|-----------|
|----------------11------(11)b11.5r|=(11)------|
|----8-----------------------------|-----------|
|--9-----9-------------------------|-----------|
|----------------------------------|-----------|
|----------------------------------|-----------|
|
|  Q    +Q           +Q               +H.
|----------------------------------|-----------|
|-11---(11)b11.5r===(11)-----------|-(11)------|
|----------------------------------|-----------|
|----------------------------------|-----------|
|----------------------------------|-----------|
|----------------------------------|-----------|


  N.C.(A#7)
   E E   E       Q      +E         +H.
|-------------------------------|------------------|
|----------------9------(9)b9.5r|==(9)-------------|
|----7--------------------------|------------------|
|--8-----8----------------------|------------------|
|-------------------------------|------------------|
|-------------------------------|------------------|
|
|  Q    +Q          +Q             +Q     Q    Q
|-------------------------------|------------------|
|-11---(11)b11.5r==(11)---------|-(11)\--11\--11\--|
|-------------------------------|------------------|
|-------------------------------|------------------|
|-------------------------------|------------------|
|-------------------------------|------------------|


 Interlude
  N.C.(D#5/B)                       N.C.(A#)
 4/4
  Gtr I
  Q  Q  E +E    +Q     +W           Q  Q  Q  Q    +W
|--------------------|------------|-------------|--------|
|--------------------|------------|-------------|--------|
|-------3-(3)b4r(3)--|-(3)--------|-------1--3--|-(3)----|
|----1---------------|------------|----0--------|--------|
|-2------------------|------------|-1-----------|--------|
|--------------------|------------|-------------|--------|


  N.C.(D#5/B)                       N.C.(A#add11)
  Q  Q  E +E    +Q     +W           Q  Q  Q  Q    +Q   H    Q
|--------------------|------------|-------------|--------------|
|--------------------|------------|-------------|------4-------|
|-------3-(3)b4r(3)--|-(3)--------|-------1--3--|-(3)----------|
|----1---------------|------------|----0--------|--------------|
|-2------------------|------------|-1-----------|-----------1--|
|--------------------|------------|-------------|--------------|


  N.C.(D#5/B)                          N.C.(A#)
  Gtr I
  Q  Q   E +E    +Q      +H.      Q    Q  Q   Q  Q     +H.      Q
|---------------------|--------------|--------------|--------------|
|---------------------|--------------|--------------|--------------|
|--------3-(3)b4r(3)--|--(3)---------|--------1--3--|--(3)---------|
|----1----------------|--------------|----0---------|--------------|
|-2-------------------|-----------2--|-1------------|-----------1--|
|---------------------|--------------|--------------|--------------|
|
| Gtr II
| Q  Q   H               +W            Q  Q   H        +W
|---------------------|--------------|--------------|--------------|
|-------11------------|-(11)---------|-------11-----|-(11)---------|
|----8----------------|--------------|----7---------|--------------|
|-9-------------------|--------------|-8------------|--------------|
|---------------------|--------------|--------------|--------------|
|---------------------|--------------|--------------|--------------|


  N.C.(D#5/B)                          N.C.(A#)
  Q  Q   E +E    +Q      +H.      Q    Q  Q   Q  Q     +Q   H    Q
|---------------------|--------------|--------------|---------------|
|---------------------|--------------|--------------|-------4-------|
|--------3-(3)b4r(3)--|--(3)---------|--------1--3--|--(3)----------|
|----1----------------|--------------|----0---------|---------------|
|-2-------------------|-----------2--|-1------------|------------1--|
|---------------------|--------------|--------------|---------------|
|
| Q  Q   H               +W            Q  Q   H        +W
|---------------------|--------------|--------------|---------------|
|-------11------------|-(11)---------|-------11-----|-(11)----------|
|----8----------------|--------------|----7---------|---------------|
|-9-------------------|--------------|-8------------|---------------|
|---------------------|--------------|--------------|---------------|
|---------------------|--------------|--------------|---------------|


  N.C.(A#m/F)                                     N.C.(A#5/Ab)
  Q.         +E   Q   Q        +E   Q.   Q  Q     Q.     Q.   Q       +W
|---------------------------|-------------------|-------------------|--------|
|---------------------------|-------------------|-------------------|--------|
|---------------------------|------11----6--8\--|--------6----------|--------|
|---------------------------|-------------------|-6-----------------|--------|
|---------------------------|-------------------|-------------8-----|-(8)----|
|-1----------(1)s16--15-----|-(15)--------------|-------------------|--------|
|
| E   E   E   H         +E     +W                 E  E E H      +E    +W
|---------------------------|-------------------|-------------------|--------|
|---------------------------|-------------------|--------6------(6)-|-(6)----|
|----(6)--------------------|-------------------|----3--------------|--------|
|-8------(8)----------------|-------------------|-6----6------------|--------|
|-------------8---------(8)-|--(8)--------------|-------------------|--------|
|---------------------------|-------------------|-------------------|--------|


  N.C.(A#m/F)                         N.C.(A#5/Ab)
  E E  E  H     +E     +H      H      E E E  H     +E     +W
|-------------------|---------------|------------------|---------|
|-------------------|---------11----|------------------|---------|
|-----11-10----(10)-|-(10)----------|-------10----(10)-|-(10)----|
|---8---------------|---------------|---8--------------|---------|
|-9-----------------|---------------|-9---9------------|---------|
|-------------------|---------------|------------------|---------|
|
| E E  E  H     +E     +W             E E E  H     +E     +W
|-------------------|---------------|------------------|---------|
|-------------------|---------------|--------6-----(6)-|--(6)----|
|---6---------------|---------------|---3--------------|---------|
|-8----8------------|---------------|-6---6------------|---------|
|---------8-----(8)-|--(8)----------|------------------|---------|
|-------------------|---------------|------------------|---------|


  N.C.(A#m/F)                                 N.C.(A#5/Ab)
  Q.     +E   Q   Q        +E   Q.   Q  Q     Q.     Q.   Q       +W
|-----------------------|-------------------|-------------------|--------|
|-----------------------|-------------------|-------------------|--------|
|-----------------------|------11----6--8\--|--------6----------|--------|
|-----------------------|-------------------|-6-----------------|--------|
|-----------------------|-------------------|-------------8-----|-(8)----|
|-1------(1)s16--15-----|-(15)--------------|-------------------|--------|
|
| E  E E  H         +E     +W                 E  E E H      +E    +W
|-----------------------|-------------------|-------------------|--------|
|-----------------------|-------------------|--------6------(6)-|-(6)----|
|----6------------------|-------------------|----3--------------|--------|
|-8----8----------------|-------------------|-6----6------------|--------|
|---------8---------(8)-|--(8)--------------|-------------------|--------|
|-----------------------|-------------------|-------------------|--------|


  N.C.(A#m/F)                        N.C.(A#5/Ab)
  E E E  H     +E     +H      H      E E E  H     +E     +W
|------------------|---------------|------------------|---------|
|------------------|---------11----|------------------|---------|
|-------10----(10)-|-(10)----------|-------10----(10)-|-(10)----|
|---8--------------|---------------|---8--------------|---------|
|-9---9------------|---------------|-9---9------------|---------|
|------------------|---------------|------------------|---------|
|
| E E E  H     +E     +W             E E E  H     +E     +W
|------------------|---------------|------------------|---------|
|------------------|---------------|--------6-----(6)-|--(6)----|
|---6--------------|---------------|---3--------------|---------|
|-8---8------------|---------------|-6---6------------|---------|
|--------8-----(8)-|--(8)----------|------------------|---------|
|------------------|---------------|------------------|---------|


  N.C.
  Gtr I
   Q.      Q.     Q      +E  Q.     Q    Q
|----------------------|----------------------|
|-----------------6----|-(6)--------4---------|
|----------------------|----------------------|
|----------4-----------|-----4-----------4----|
|-/6-------------------|----------------------|
|----------------------|----------------------|
|
| Gtr IV
|  PM------------------------------------------
|  E   E E E  E E E  E    E  E  E E E  E E  E
|----------------------|----------------------|
|----------------------|----------------------|
|----------------------|----------------------|
|--8--11-8-6--8-6-8-11-|--8--6--8-6-8-11-8-11-|
|----------------------|----------------------|
|----------------------|----------------------|


  Q.      Q.     Q      +E  Q   +E      +Q     Q
|---------------------|-----------------------------|
|---------------------|-----6---(6)b6.5r(6)---------|
|---------------------|-----------------------------|
|---------6------4----|-(4)--------------------4----|
|-4-------------------|-----------------------------|
|---------------------|-----------------------------|
|
|------------------------------------------------|
| E   E E E  E E E  E    E  E E  E       E   E E  E
|---------------------|-----------------------------|
|---------------------|-----------------------------|
|---------------------|------------------8--10-8-10-|
|-8--11-8-6--8-6-8-11-|--8--6-8--6------------------|
|---------------------|-----------------------------|
|---------------------|-----------------------------|


   Q.      Q.     Q      +E  Q.     Q    Q
|----------------------|----------------------|
|-----------------6----|-(6)--------4---------|
|----------------------|----------------------|
|----------4-----------|-----4-----------4----|
|-/6-------------------|----------------------|
|----------------------|----------------------|
|
|  PM------------------------------------------
|  E   E E E  E E E  E    E  E  E E E  E E  E
|----------------------|----------------------|
|----------------------|----------------------|
|----------------------|----------------------|
|--8--11-8-6--8-6-8-11-|--8--6--8-6-8-11-8-11-|
|----------------------|----------------------|
|----------------------|----------------------|


  Q.      Q.     Q      +E  Q   +E      +Q     Q
|---------------------|-----------------------------|
|---------------------|-----6---(6)b6.5r(6)---------|
|---------------------|-----------------------------|
|---------6------4----|-(4)--------------------4----|
|-4-------------------|-----------------------------|
|---------------------|-----------------------------|
|
|------------------------------------------------|
| E   E E E  E E E  E    E  E E  E       E   E E  E
|---------------------|-----------------------------|
|---------------------|-----------------------------|
|---------------------|------------------8--10-8-10-|
|-8--11-8-6--8-6-8-11-|--8--6-8--6------------------|
|---------------------|-----------------------------|
|---------------------|-----------------------------|


   Q.      Q.     Q      +E  Q.     Q    Q
|----------------------|----------------------|
|-----------------6----|-(6)--------4---------|
|----------------------|----------------------|
|----------4-----------|-----4-----------4----|
|-/6-------------------|----------------------|
|----------------------|----------------------|
|
|  PM------------------------------------------
|  E   E E E  E E E  E    E  E  E E E  E E  E
|----------------------|----------------------|
|----------------------|----------------------|
|----------------------|----------------------|
|--8--11-8-6--8-6-8-11-|--8--6--8-6-8-11-8-11-|
|----------------------|----------------------|
|----------------------|----------------------|


  Q.      Q.     Q      +E  Q   +E      +Q     Q
|---------------------|-----------------------------|
|---------------------|-----6---(6)b6.5r(6)---------|
|---------------------|-----------------------------|
|---------6------4----|-(4)--------------------4----|
|-4-------------------|-----------------------------|
|---------------------|-----------------------------|
|
|------------------------------------------------|
| E   E E E  E E E  E    E  E E  E       E   E E  E
|---------------------|-----------------------------|
|---------------------|-----------------------------|
|---------------------|------------------8--10-8-10-|
|-8--11-8-6--8-6-8-11-|--8--6-8--6------------------|
|---------------------|-----------------------------|
|---------------------|-----------------------------|


   Q.      Q.     Q      +E  Q.     Q    Q
|----------------------|----------------------|
|-----------------6----|-(6)--------4---------|
|----------------------|----------------------|
|----------4-----------|-----4-----------4----|
|-/6-------------------|----------------------|
|----------------------|----------------------|
|
|  PM------------------------------------------
|  E   E E E  E E E  E    E  E  E E E  E E  E
|----------------------|----------------------|
|----------------------|----------------------|
|----------------------|----------------------|
|--8--11-8-6--8-6-8-11-|--8--6--8-6-8-11-8-11-|
|----------------------|----------------------|
|----------------------|----------------------|


  Q.      Q.     Q      +E  H       Q.     W
|---------------------|------------------|------|
|---------------------|-----6------------|------|
|---------------------|------------------|------|
|---------6------4----|-(4)--------------|------|
|-4-------------------|------------------|------|
|---------------------|------------------|------|
|
|------------------|
| E   E E E  E E E  E    E  E E Q   Q.     W
|---------------------|------------------|------|
|---------------------|------------------|------|
|---------------------|------------------|------|
|-8--11-8-6--8-6-8-11-|--8--8-8-8\-------|------|
|---------------------|------------------|------|
|---------------------|------------------|------|


 Out-Chorus
  N.C.
 3/4
  Gtr III
    ~~~~    ~~~~~~~~~~~~     ~~~~~~~~~~~     ~~~~~~~~~~~~      ~~~~
    Q    E  Q.       Q    E  Q.      Q    E  Q.       Q    E   Q   E
|----------------|----------------|---------------|-------------------|
|-/16---19-16----|--16---19-16----|-16---19-16----|--16---19--16\--x--|
|----------------|----------------|---------------|-------------------|
|----------------|----------------|---------------|-------------------|
|----------------|----------------|---------------|-------------------|
|----------------|----------------|---------------|-------------------|
|
| Gtr IV
|   TP               TP              TP               TP
|   H.              +H.              H.              +Q.       Q.
|----------------|----------------|---------------|-------------------|
|----------------|----------------|---------------|-------------------|
|--10------------|-(10)-----------|-11------------|-(11)-----/13\-----|
|---x------------|--(x)-----------|--x------------|--(x)------/x\-----|
|---8------------|--(8)-----------|--9------------|--(9)-----/11\-----|
|----------------|----------------|---------------|-------------------|


   ~~~     ~~~~~~~~~~~     ~~~~~~~~~~~     ~~~~~~~~~~~~     ~~~
   Q    E  Q.      Q    E  Q.      Q    E  Q.       Q    E  Q.
|---------------|---------------|----------------|---------------|
|-11---14-11----|-11---14-11----|-11---14-11-----|-11---14-11----|
|---------------|---------------|----------------|---------------|
|---------------|---------------|----------------|---------------|
|---------------|---------------|----------------|---------------|
|---------------|---------------|----------------|---------------|
|
|          TP      TP                               TP
|  E E  E  Q.     +H.              E Q     Q   E    H.
|---------------|---------------|----------------|---------------|
|---------------|---------------|----------------|---------------|
|--6s8--8--8----|-(8)-----------|--6s8-----8---8-|--8------------|
|--x-x--x--x----|-(x)-----------|--x-x-----x---x-|--x------------|
|--4s6--6--6----|-(6)-----------|--4s6-----6---6-|--6------------|
|---------------|---------------|----------------|---------------|


    ~~~~    ~~~~~~~~~~~~     ~~~~~~~~~~~     ~~~~~~~~~~~~      ~~~~
    Q    E  Q.       Q    E  Q.      Q    E  Q.       Q    E   Q   E
|----------------|----------------|---------------|------------------|
|-/16---19-16----|--16---19-16----|-16---19-16----|--16---19--16\--x-|
|----------------|----------------|---------------|------------------|
|----------------|----------------|---------------|------------------|
|----------------|----------------|---------------|------------------|
|----------------|----------------|---------------|------------------|
|
|   TP               TP              TP               TP
|   H.              +H.              H.              +Q.       Q.
|----------------|----------------|---------------|------------------|
|----------------|----------------|---------------|------------------|
|--10------------|-(10)-----------|-11------------|-(11)-----/13\----|
|---x------------|--(x)-----------|--x------------|--(x)------/x\----|
|---8------------|--(8)-----------|--9------------|--(9)-----/11\----|
|----------------|----------------|---------------|------------------|


   ~~~     ~~~~~~~~~~~     ~~~~~~~~~~~     ~~~~~~~~~~~~~~
   Q    E  Q.      Q    E  Q.      Q    E  Q.         H           Q
|---------------|---------------|------------------|--------------------|
|-11---14-11----|-11---14-11----|-11---14-11-------|-11\----------------|
|---------------|---------------|------------------|--------------------|
|---------------|---------------|------------------|--------------------|
|---------------|---------------|------------------|--------------------|
|---------------|---------------|------------------|--------------------|
|
|                                                    Gtr V
|          TP      TP                                 TP TP TP TP TP TP
|  E E  E  Q.     +H.              E Q     Q   +E     E  E  E  E  E  E
|---------------|---------------|------------------|--x\----------------|
|---------------|---------------|------------------|--x\----------------|
|--6s8--8--8----|-(8)-----------|--6s8-----8---(8)-|--x\-x\-x\-x\-x\-x\-|
|--x-x--x--x----|-(x)-----------|--x-x-----x---(x)-|-----x\-x\-x\-x\-x\-|
|--4s6--6--6----|-(6)-----------|--4s6-----6---(6)-|-----x\-x\-x\-x\-x\-|
|---------------|---------------|------------------|--------------------|


    N.C.
    Gtr III
     H.         Q    E E  E E    Q.    Q.     Q.   Q.
||-----------|----------------|-------------|------------|
||o-11-------|--9------9----9-|--6-----7----|------------|
||-----------|------11---11---|-------------|-8----6-----|
||-----------|----------------|-------------|------------|
||o----------|----------------|-------------|------------|
||-----------|----------------|-------------|------------|
|
|   Gtr IV
|    Q  H      +H.               Q.    Q.     Q.   Q.
||-----------|----------------|-------------|------------|
||o----------|----------------|-------------|------------|
||---6s=8----|-(8)------------|-10----11----|-8----6-----|
||-----------|----------------|-------------|------------|
||o----------|----------------|-------------|------------|
||-----------|----------------|-------------|------------|


                             1.
   H.         Q    E E  E E    Q.    Q.      Q.        Q.
|----------|----------------|-------------|--------------------||
|-11-------|--9------9----9-|--6-----7----|-------------------o||
|----------|------11---11---|-------------|--8---------6-------||
|----------|----------------|-------------|--------------------||
|----------|----------------|-------------|-------------------o||
|----------|----------------|-------------|--------------------||
|
|  Q  H      +H.               Q.    Q.      E   E  E  E   Q
|----------|----------------|-------------|--------------------||
|----------|----------------|-------------|-----------11------o||
|--6s=8----|-(8)------------|-10----11----|-10--11-10-----11---||
|----------|----------------|-------------|--------------------||
|----------|----------------|-------------|-------------------o||
|----------|----------------|-------------|--------------------||


  2.
   E  E  E  E  E  E    E  E  E  E  E  E
|-------------------|-------------------|
|-------------------|-------------------|
|-10h11p10----------|-11h13p11-10h11p10-|
|----------11h13p11-|-------------------|
|-------------------|-------------------|
|-------------------|-------------------|
|
|  Q.       Q.         E  E  E  E  Q
|-------------------|-------------------|
|-------------------|----------11-------|
|-10-------11-------|-10-11-10----11----|
|-------------------|-------------------|
|-------------------|-------------------|
|-------------------|-------------------|


   Q.        Q.        Q        +Q         +Q
|-------------------|---------------------------|
|-------------------|---------------------------|
|-------------------|-13b14r===(13)b14r===(13)--|
|-11--------13------|---------------------------|
|-------------------|---------------------------|
|-------------------|---------------------------|
|
|  E   E  E  E   Q     E     E   E      E   Q
|-------------------|---------------------------|
|-----------11------|------------------11-------|
|-10--11-10-----11--|-10----11--10---------11---|
|-------------------|---------------------------|
|-------------------|---------------------------|
|-------------------|---------------------------|


   +Q      Q     Q     Q      +Q          +Q
|-------------------|--------------------------|
|-------------------|--------------------------|
|-(13)--------------|-13b14r=(13)b14r====(13)--|
|---------11----13--|--------------------------|
|-------------------|--------------------------|
|-------------------|--------------------------|
|
|   E   E  E  E  Q     Q.             Q.
|-------------------|--------------------------|
|------------11-----|-11-----------------------|
|--10--11-10----11--|----------------10--------|
|-------------------|--------------------------|
|-------------------|--------------------------|
|-------------------|--------------------------|


   Q    Q       Q      E   E  E  Q.      Q  E  Q   E    Q  E  Q   E
|-------------------|-----------------|--------------|--------------|
|-------------------|-----------------|--------------|--------------|
|-------------------|-10--11-10--6----|--6s=8--8---8-|--6s=8--8---8-|
|--8---(8)-----(8)--|-----------------|--------------|--------------|
|-------------------|-----------------|--------------|--------------|
|-------------------|-----------------|--------------|--------------|
|
|  Q.       Q.         Q.        Q.      Q.    Q.       Q.    Q.
|-------------------|-----------------|--------------|--------------|
|----------14-------|-----------------|-------14-----|--------------|
|-11----------------|-11--------10----|-11-----------|-11----10-----|
|-------------------|-----------------|--------------|--------------|
|-------------------|-----------------|--------------|--------------|
|-------------------|-----------------|--------------|--------------|


   E  E  E  E  E E    H.                 +H.                 +H.
|------------------|------------------|-------------------|--------------|
|------------------|------------------|-------------------|--------------|
|-10-11-10---------|------------------|-------------------|--------------|
|-----------8-11-8-|-11---------------|-(11)--------------|-(11)---------|
|------------------|------------------|-------------------|--------------|
|------------------|------------------|-------------------|--------------|
|
|  E  E  E  E  Q      E   E  E  E  Q      E   E  E  E  Q      Q.    Q.
|------------------|------------------|-------------------|--------------|
|----------11------|-----------11-----|------------11-----|--11----------|
|-10-11-10----11---|-10--11-10----11--|--10--11-10----11--|--------10----|
|------------------|------------------|-------------------|--------------|
|------------------|------------------|-------------------|--------------|
|------------------|------------------|-------------------|--------------|


   E   E  E  E   E E    Q.    Q.       H.            +H.
|--------------------|-------------|--------------|------------------|
|--------------------|-------------|--------------|------------------|
|-10--11-10--8--10-8-|-10----------|--------------|------------------|
|--------------------|--------8----|-/13----------|-(13)-------------|
|--------------------|-------------|--------------|------------------|
|--------------------|-------------|--------------|------------------|
|
|  Q.        Q.         Q.    Q.       Q.    Q.       E  E  E E  E E
|--------------------|-------------|--------------|------------------|
|-----------14-------|-------------|--------14----|------------------|
|-11-----------------|-11----10----|--11----------|--10h11p10-8h10p8-|
|--------------------|-------------|--------------|------------------|
|--------------------|-------------|--------------|------------------|
|--------------------|-------------|--------------|------------------|


                      >
   E  E  E E  E E     H.         +H.         +H.
|-----------------|-----------|-----------|---------*|
|-----------------|-----------|-----------|---------*|
|-10h11p10-8h10p8-|-----------|-----------|---------*|
|-----------------|--11-------|-(11)------|-(11)----*|
|-----------------|-----------|-----------|---------*|
|-----------------|-----------|-----------|---------*|
|
|  >
|  H.                +H.         +H.         +H.
|-----------------|-----------|-----------|---------*|
|-----------------|-----------|-----------|---------*|
|-----------------|-----------|-----------|---------*|
|-11--------------|-(11)------|-(11)------|-(11)----*|
|-----------------|-----------|-----------|---------*|
|-----------------|-----------|-----------|---------*|


Duration Legend
---------------
W - whole; H - half; Q - quarter; E - 8th; S - 16th; T - 32nd; X - 64th; a - acciaccatura
+ - note tied to previous; . - note dotted; .. - note double dotted
Uncapitalized letters represent notes that are staccato (1/2 duration)
Irregular groupings are notated above the duration line
Duration letters will always appear directly above the note/fret number it represents the
duration for.  Duration letters with no fret number below them represent rests.  Multi-
bar rests are notated in the form Wxn, where n is the number of bars to rest for.  Low
melody durations appear below the staff

Tablature Legend
----------------
 h   - hammer-on
 p   - pull-off
 b   - bend
 pb  - pre-bend
 r   - bend release (if no number after the r, then release immediately)
 /\  - slide into or out of (from/to "nowhere")
 s   - legato slide
 S   - shift slide
  - natural harmonic
[n]  - artificial harmonic
n(n) - tapped harmonic
 ~   - vibrato
 tr  - trill
 T   - tap
 TP  - trem. picking
 PM  - palm muting
\n/  - tremolo bar dip; n = amount to dip
 \n  - tremolo bar down
 n/  - tremolo bar up
/n\  - tremolo bar inverted dip
 =   - hold bend; also acts as connecting device for hammers/pulls
   - volume swell (louder/softer)
 x   - on rhythm slash represents muted slash
 o   - on rhythm slash represents single note slash

Misc Legend
-----------
 |  - bar
||  - double bar
||o - repeat start
o|| - repeat end
*|  - double bar (ending)
 :  - bar (freetime)
 $  - Segno
 &  - Coda
Tempo markers -  = BPM(8/16=s8/s16), where s8 = swing 8ths, s16 = swing 16ths





Comments


Popular Circa Survive tabs & chords
Holding Someone's Hair Back Bass Tabs
Devil Song Chords
Dyed In The Wool 1 Chords
Imaginary Enemy 2 Chords
Get Out Drum Tabs
Act Appalled 2 Tabs
Mandala Tabs
Suitcase Tabs
Act Appalled Ukulele
Act Appalled 2 Ukulele


Song lyrics



↑ Back to top | Tablatures and chords are parodies/interpretations of the original songs. You may use it for private study, scholarship, research or language learning purposes only
© 2014 AZChords.com Contact us | Privacy policy | DMCA | Add/correct tabs | Request tabs | Top 50 tabs