» » »

Circa Survive, Kicking Your Crosses Down Tabs (ver.1)

Artists:  A B C D E F G H I J K L M N O P Q R S T U V W X Y Z # 

Kicking Your Crosses Down Tabs (ver.1)

Circa Survive Tabs
 Rating:
4/5 (4 votes)
Kicking Your Crosses Down lessons Tabs too difficult? Try these video lessons and learn fast
1
                
Tuning: Half step down: Eb, Ab, Db, Gb, Bb, eb

Intro:
eb|-----------------------------|----------------------------------------|
Bb|-----------------------------|----------------------------------------|
Gb|---3--------10--------(8)----|---5--------10-------8------7-----------|
Db|---5--------12--------(10)---|---3--------12-------10-----10----------|
Ab|-----------------------------|----------------------------------------|
Eb|-----------------------------|----------------------------------------|

e|-----------------------------------------------------------------------|
B|-----------------------------------------------------------------------|
G|-2h3--3--------3-----2h3---3--------3----------------------------------|
D|---------0--------------------0--------------8---------8---------------| 
A|------------------------------------------------x----------x-----------|
E|-3----3-----3-----3--3-----3-----3-----3\8---------8-----------8-------|

e|-----------------------------------------------------------------------|
B|-----------------------------------------------------------------------|
G|-2h3--3--------3-----2h3---3--------3----------------------------------|
D|---------0--------------------0--------------8---------8-----------7---| x2
A|------------------------------------------------x----------x-----------|
E|-3----3-----3-----3--3-----3-----3-----3\8---------8-----------8-------|

e|-----------------------------------------------------------------------|
B|-----------------------------------------------------------------------|
G|-2h3--3--------3-----2h3---3--------3----------------------------------|
D|---------0--------------------0--------------8---------8---------------| 
A|------------------------------------------------x----------x-----------|
E|-3----3-----3-----3--3-----3-----3-----3\8---------8-----------8-------|


e|---------------------------------|
B|--6------------------------------|
G|--------8------------------------|
D|-----0-----0---------------------|
A|---------------------------------|
E|---------------8-----------------|

Intro and Verse. I'll do the chorus after i figure it out. Enjoy!!


| /  slide up
| \  slide down
| h  hammer-on
| p  pull-off
| ~  vibrato
| +  harmonic
| x  Mute note
            
Submit corrections

comments powered by Disqus
↑ Back to top | Circa Survive Tabs for Kicking Your Crosses Down. Lyrics for acoustic guitar and electric guitar. 1 Tablatures and chords are parodies/interpretations of the original songs. You may use it for private study, scholarship, research or language learning purposes only