>
 >
Julian

Julian Guitar Tabs

Circa Survive - Julian chords, tabs, tablatures, lyrics

Guitar lessons | Add/correct | Request | Top 50 tabs Artists:  A B C D E F G H I J K L M N O P Q R S T U V W X Y Z 0-9

Julian Guitar Tabs – Circa Survive

CD, Sheet music, Poster

Do you like Julian? Share with your friends now
TabsTabs v2
Intro
Q=128(8=s8)
  N.C.       D            A/C#          Bm
 3/4
  Gtr I
  Q  Q  Q    Q.   E E E   E E E E E E   Q  E E E E   Q.   E Q
|----------|------------|-------------|------------|-------------|
|----------|-7----7-7-7-|-5-5-5-5-5-5-|-3--3-3-3-3-|-3----3-3----|
|----------|------------|-------------|------------|-------------|
|----------|------------|-------------|------------|-------------|
|-0--2--5--|-5----5-5-5-|-4-4-4-4-4-4-|-2--2-2-2-2-|-2----2-2\---|
|----------|------------|-------------|------------|-------------|


  Em           D            C#m
  Q.   E E E   Q.   E E E   Q.   E E +E    Q.   E E E
|------------|------------|--------------|------------|
|------------|------------|--------------|------------|
|-9----9-9-9-|-7----7-7-7-|-6----6-6-(6)-|-6----6-6-6-|
|-5----5-5-5-|-4----4-4-4-|-2----2-2-(2)-|-2----2-2-2-|
|-7----7-7-7-|-5----5-5-5-|-4----4-4-(4)-|-4----4-4-4-|
|------------|------------|--------------|------------|


  D            A/C#          Bm
  Q.   E E E   E E E E E E   Q  E E E E   Q.   E Q
|------------|-------------|------------|------------|
|-7----7-7-7-|-5-5-5-5-5-5-|-3--3-3-3-3-|-3----3-3---|
|------------|-------------|------------|------------|
|-4----------|-------------|------------|------------|
|-5----5-5-5-|-4-4-4-4-4-4-|-2--2-2-2-2-|-2----2-2\--|
|------------|-------------|------------|------------|


  G                           A            N.C.
  Q.   E E E   Q  E E E E   E Q  E E +E    Q  Q  Q
|------------|------------|--------------|----------|
|------------|------------|--------------|----------|
|------------|------------|--------------|----------|
|-0----0-0-0-|-0--0-0-0-0-|-0-2--2-2-(2)-|----------|
|-2----2-2-2-|-2--2-2-2-2-|-2S4--4-4-(4)-|-0--2--5--|
|-3----3-3-3-|-3--3-3-3-3-|-3S5--5-5-(5)-|----------|


  D            A/C#         Bm
  Q.   E E E   Q.   E E E   Q.   E Q    Q.   E Q
|------------|------------|-----------|------------|
|-7----7-7-7-|-5----5-5-5-|-3----3-3--|-3------3---|
|------------|------------|-----------|------------|
|------------|------------|-----------|------------|
|-5----5-5-5-|-4----4-4-4-|-2----2-2--|-2----2-2/--|
|------------|------------|-----------|------------|


  Em           D            C#m          N.C.
  Q  E E E E   Q.   E E E   Q.   E E E   Q  Q  Q
|------------|------------|------------|----------|
|------------|------------|------------|----------|
|-9--9-9-9-9-|-7----7-7-7-|-6----6-6-6-|----------|
|-5--5-5-5-5-|-4----4-4-4-|-2----2-2-2-|----------|
|-7--7-7-7-7-|-5----5-5-5-|-4----4-4-4-|-0--2--5--|
|------------|------------|------------|----------|


  D            A/C#         Bm
  Q.   E E E   Q.   E E E   Q.   Q  E   Q.   E Q
|------------|------------|-----------|------------|
|-7----7-7-7-|-5----5-5-5-|-3----3--3-|-3------3---|
|------------|------------|-----------|------4-4\--|
|------------|------------|-----------|------4-4\--|
|-5----5-5-5-|-4----4-4-4-|-2----2--2-|-2----2-2\--|
|------------|------------|-----------|------------|


  G                         A            N.C.
  Q  E E E E   Q  E E E E   Q.   E E E   Q  Q  Q
|------------|------------|------------|----------|
|------------|------------|------------|----------|
|------------|------------|------------|----------|
|-0--0-0-0-0-|-0--0-0-0-0-|-2----2-2-2-|----------|
|-2--2-2-2-2-|-2--2-2-2-2-|-4----4-4-4-|-0--2--5--|
|-3--3-3-3-3-|-3--3-3-3-3-|-5----5-5-5-|----------|


  D           A/C#         Bm
  Q.   Q.     Q.   E E E   Q.   Q  E   Q.   E Q
|-----------|------------|-----------|------------|
|-7----7----|-5----5-5-5-|-3----3--3-|-3------3---|
|-----------|------------|-----------|------4-4/--|
|-----------|------------|-----------|------4-4/--|
|-5----5----|-4----4-4-4-|-2----2--2-|-2----2-2/--|
|-----------|------------|-----------|------------|


  Em           D            C#m          N.C.
  Q.   E E E   Q.   E E E   Q.   E E E   Q  Q  Q
|------------|------------|------------|----------|
|------------|------------|------------|----------|
|-9----9-9-9-|-7----7-7-7-|-6----6-6-6-|----------|
|-5----5-5-5-|-4----4-4-4-|-2----2-2-2-|----------|
|-7----7-7-7-|-5----5-5-5-|-4----4-4-4-|-0--2--5--|
|------------|------------|------------|----------|


  D            A/C#         Bm
  Q.   E E E   Q.   E E E   Q.   Q  E   Q.   E Q
|------------|------------|-----------|------------|
|-7----7-7-7-|-5----5-5-5-|-3----3--3-|-3------3---|
|------------|------------|-----------|------4-4\--|
|------------|------------|-----------|------4-4\--|
|-5----5-5-5-|-4----4-4-4-|-2----2--2-|-2----2-2\--|
|------------|------------|-----------|------------|


  G                           A
                                           >
  Q.   E +E  E   Q  E E E E   H    +E  E   H.
|--------------|------------|------------|-------*|
|--------------|------------|------------|-------*|
|--------------|------------|------------|-------*|
|-0----0-(0)-0-|-0--0-0-0-0-|-2----(2)-2-|-2-----*|
|-2----2-(2)-2-|-2--2-2-2-2-|-4----(4)-4-|-4-----*|
|-3----3-(3)-3-|-3--3-3-3-3-|-5----(5)-5-|-5-----*|


Duration Legend
---------------
W - whole; H - half; Q - quarter; E - 8th; S - 16th; T - 32nd; X - 64th; a - acciaccatura
+ - note tied to previous; . - note dotted; .. - note double dotted
Uncapitalized letters represent notes that are staccato (1/2 duration)
Irregular groupings are notated above the duration line
Duration letters will always appear directly above the note/fret number it represents the
duration for.  Duration letters with no fret number below them represent rests.  Multi-
bar rests are notated in the form Wxn, where n is the number of bars to rest for.  Low
melody durations appear below the staff

Tablature Legend
----------------
 h   - hammer-on
 p   - pull-off
 b   - bend
 pb  - pre-bend
 r   - bend release (if no number after the r, then release immediately)
 /\  - slide into or out of (from/to "nowhere")
 s   - legato slide
 S   - shift slide
<n> - natural harmonic
[n]  - artificial harmonic
n(n) - tapped harmonic
 ~   - vibrato
 tr  - trill
 T   - tap
 TP  - trem. picking
 PM  - palm muting
\n/  - tremolo bar dip; n = amount to dip
 \n  - tremolo bar down
 n/  - tremolo bar up
/n\  - tremolo bar inverted dip
 =   - hold bend; also acts as connecting device for hammers/pulls
 <> - volume swell (louder/softer)
 x   - on rhythm slash represents muted slash
 o   - on rhythm slash represents single note slash

Misc Legend
-----------
 |  - bar
||  - double bar
||o - repeat start
o|| - repeat end
*|  - double bar (ending)
 :  - bar (freetime)
 $  - Segno
 &  - Coda
Tempo markers - <E/E./Q/Q./H/H.> = BPM(8/16=s8/s16), where s8 = swing 8ths, s16 = swing 16ths





Comments


Popular Circa Survive tabs & chords
House Of Leaves Bass Tabs
In Fear And Faith 4 Bass Tabs
Spirit Of The Stairwell 1 Chords
Ill Find A Way Tabs
Oh Hello Tabs
Stop The Fucking Car Tabs
Bad Reputation Ukulele
Devil Song Ukulele
I Felt Free 2 Ukulele
Sharp Practice Ukulele


Song lyrics



↑ Back to top | Tablatures and chords are parodies/interpretations of the original songs. You may use it for private study, scholarship, research or language learning purposes only
© 2014 AZChords.com Contact us | Privacy policy | DMCA | Add/correct tabs | Request tabs | Top 50 tabs