» » »

Circa Survive, I've Been Dying To Reach You Tabs (ver.1)

Artists:  A B C D E F G H I J K L M N O P Q R S T U V W X Y Z # 

I've Been Dying To Reach You Tabs (ver.1)

Circa Survive Tabs
Rating:
0/5 (0 votes)
I've Been Dying To Reach You lessons Tabs too difficult? Try these video lessons and learn fast
                	I've Been Dying To Reach You - Anthony Green

Tuning: standard

this is my first tab ever. it looks a little sloppy. oh well


                 intro (strum each chord once)
e|---------------------------------------------------------------------------|
B|---5----9------------------------------------------------------------------|
G|---6----9------------------------------------------------------------------|
D|---6----9------------------------------------------------------------------|
A|---4----7------------------------------------------------------------------|
E|---------------------------------------------------------------------------|
                 verse (repeat 2x)
e|---------------------------------------------------------------------------|
B|---5----9------------------------------------------------------------------|
G|---6----9------------------------------------------------------------------|
D|---6----9------------------------------------------------------------------|
A|---4----7------------------------------------------------------------------|
E|---------------------------------------------------------------------------|
                prechorus
e|---------------------------------------------------------------------------|
B|---------------------------------------------------------------------------|
G|---5-----------------------------------------------------------------------|
D|---6-----------------------------------------------------------------------|
A|---6-----------------------------------------------------------------------|
E|---4-----------------------------------------------------------------------|
               chorus (repeat 2x)
e|---------------------------------------------------------------------------|
B|---9-----5-----------------------------------------------------------------|
G|---9-----6---5---6---------------------------------------------------------|
D|---9-----6---6---7---------------------------------------------------------|
A|---7-----4---6---7---------------------------------------------------------|
E|-------------4---5---------------------------------------------------------|




im too lazy to tab the other parts . you'll figure it out.
            

comments powered by Disqus
↑ Back to top | Circa Survive Tabs for I've Been Dying To Reach You. Lyrics for acoustic guitar and electric guitar. Tablatures and chords are parodies/interpretations of the original songs. You may use it for private study, scholarship, research or language learning purposes only