» » »

Circa Survive, Imaginary Enemy Bass tabs (ver.1)

Artists:  A B C D E F G H I J K L M N O P Q R S T U V W X Y Z # 

Imaginary Enemy Bass tabs (ver.1)

Circa Survive Tabs
 Rating:
4/5 (4 votes)
Imaginary Enemy lessons Tabs too difficult? Try these video lessons and learn fast
                

 Tuning:Drop D
 
 Intro x4
G|---------------|
D|---------------|
A|---------------|
D|2---0-2--------|

 Verse x8
G|---------------|
D|---------------|
A|---------------|
D|2---0-2--------|

 Pre-Chorus
G|-----------------------------------------------------------------------------------|
D|-----------------------------------------------------------------------------------|
A|-----------333333-1-3-777777-5-7-55555555-3333333333333333-555555555555------------|
D|777777-5-7--------------------------------------------------------------00000000---|

 Chorus x2
G|------------------------------------------------------------------------|
D|------------------------------------------------------------------------|
A|---------------------------------------------------3333333333333333-----|
D|2222222222222222-0000000000000000-7777777777777777----------------------|

 Verse x12
G|--------------|
D|--------------|
A|--------------|
D|2--2-2--0-2---|

 Pre-Chorus

 Chorus x2

 Post-Chorus
G|--------------------------------|
D|--------------------------------|
A|333333333-/1515151515151515-----|
D|--------------------------------|

 Bridge x4
G|-------------------------------------------|
D|-------------------------------------------|
A|-------------------------------------------|
D|0-0--0/12--00-0/12--2-2--2/14--22-2/14-----|

 Pause 

 Solo x2(3.09)
G|------------------------------------------------------------------------|
D|------------------------------------------------------------------------|
A|---------------------------------------------------3333333333333333-----|
D|2222222222222222-0000000000000000-7777777777777777----------------------|

 Chorus x2

 Post-Chorus
G|---------------------------|
D|---------------------------|
A|33333333333333333----------|
D|---------------------------|

G|--------------|
D|--------------|
A|--------------|
D|2~------------|
            
Submit corrections

comments powered by Disqus
↑ Back to top | Circa Survive Bass for Imaginary Enemy. Lyrics for acoustic guitar and electric guitar. Tablatures and chords are parodies/interpretations of the original songs. You may use it for private study, scholarship, research or language learning purposes only