>
 >
Holding Someone's Hair Back

Holding Someone's Hair Back Bass Tabs

Circa Survive - Holding Someone's Hair Back chords, tabs, tablatures, lyrics

Guitar lessons | Add/correct | Request | Top 50 tabs Artists:  A B C D E F G H I J K L M N O P Q R S T U V W X Y Z 0-9

Holding Someone's Hair Back Bass Tabs – Circa Survive

CD, Sheet music, Poster

Do you like Holding Someone's Hair Back? Share with your friends now
Bass TabsTabs
Holding Someone's Hair Back                           
Circa Survive
Untitled



      H        Q       H        Q       H        Q       H        Q     
F#||----------------|----------------|----------------|----------------|
C#||----------------|----------------|----------------|----------------|
G#||----------------|----------------|----------------|----------------|
D#||----------------|----------------|----------------|----------------|


  H        Q       H        Q       H        Q       H        Q     
----------------|----------------|----------------|----------------|
----------------|----------------|----------------|----------------|
----------------|----------------|----------------|----------------|
----------------|----------------|----------------|----------------|


  H        Q       H        Q       H        Q       H        Q     
----------------|----------------|----------------|----------------|
----------------|----------------|----------------|----------------|
----------------|----------------|----------------|----------------|
----------------|----------------|----------------|----------------|


  H        Q       H        Q       H        Q       H        Q     
----------------|----------------|----------------|----------------|
----------------|----------------|----------------|----------------|
----------------|----------------|----------------|----------------|
----------------|----------------|----------------|----------------|


    E  Q    Q.         H.              E  E  E  Q.         H.            
|-------------------|---------------|-------------------|---------------|
|*------------------|---------------|-------------------|---------------|
|*--3--5----5\------|---------------|--5--3--5--3\------|---------------|
|-------------------|---------------|-------------------|---------------|


  E  E  E  Q.        H.                Q     E   Q.        Q    E   Q.      3x
------------------|---------------|---------------------|-------------------||
------------------|---------------|---------------------|------------------*||
--5--3--5--3------|--L------------|---------------------|------------------*||
------------------|---------------|--/10-----Ls--1------|--3----Ls--8-------||


    Q     E   Q.        Q    E   Q.          Q     E   Q.      
---------------------|------------------|---------------------|
---------------------|------------------|---------------------|
---------------------|------------------|---------------------|
--/10-----Ls--1------|--3----Ls--8------|--/10-----Ls--1------|


  Q    E   Q.          Q     E   Q.        Q     H           Q.     Q    E   
------------------|---------------------|-----------------|-----------------|
------------------|---------------------|-----------------|-----------------|
------------------|---------------------|-----------------|-----------------|
--3----Ls--8------|--/10-----Ls--1------|--3\-------------|--5------5----5--|


  Q.     Q    E     Q.     Q    E     E  Q    Q    E     Q.     Q    E   
-----------------|-----------------|------------------|-----------------|
-----------------|-----------------|------------------|-----------------|
-----------------|-----------------|------------------|-----------------|
--5------5----5--|--5------5----5--|--4--4----4----4--|--3------3----3--|


  Q.     Q    E     E  Q    Q    E      E  Q    Q    E     Q    E  E  E  E   
-----------------|-------------------|------------------|-------------------|
-----------------|-------------------|------------------|-------------------|
-----------------|-------------------|------------------|-------------------|
--3------3----3--|--6--6----6----6s--|--9--9----9----9--|--5----5--5--5--5--|


  Q    E  E  E  E     Q    E  E  E  E     Q    E  E  E  E     Q    E  E  E  E   
-------------------|-------------------|-------------------|-------------------|
-------------------|-------------------|-------------------|-------------------|
-------------------|-------------------|-------------------|-------------------|
--5----5--5--5--5--|--5----5--5--5--5--|--4----4--4--4--4--|--3----3--3--3--3--|


  Q    E  E  E  E     E  Q    Q    E      E  Q    Q    E     Q.     Q    E   
-------------------|-------------------|------------------|-----------------|
-------------------|-------------------|------------------|-----------------|
-------------------|-------------------|------------------|-----------------|
--3----3--3--3--3--|--6--6----6----6s--|--9--9----9----9--|--5------5----5--|


  Q.     Q    E     Q.     Q    E     E  Q    Q    E     Q.     Q    E   
-----------------|-----------------|------------------|-----------------|
-----------------|-----------------|------------------|-----------------|
-----------------|-----------------|------------------|-----------------|
--5------5----5--|--5------5----5--|--4--4----4----4--|--3------3----3--|


  Q.     Q    E     E  Q    Q    E      E  Q    Q    E     H        Q     
-----------------|-------------------|------------------|----------------|
-----------------|-------------------|------------------|----------------|
-----------------|-------------------|------------------|----------------|
--3------3----3--|--6--6----6----6s--|--9--9----9----9--|----------------|


  H        Q       H        Q       H        Q       H        Q     
----------------|----------------|----------------|----------------|
----------------|----------------|----------------|----------------|
----------------|----------------|----------------|----------------|
----------------|----------------|----------------|----------------|


  H        Q       H        Q       H        Q       H        Q     
----------------|----------------|----------------|----------------|
----------------|----------------|----------------|----------------|
----------------|----------------|----------------|----------------|
----------------|----------------|----------------|----------------|


  H        Q       H        Q       H        Q       H        Q     
----------------|----------------|----------------|----------------|
----------------|----------------|----------------|----------------|
----------------|----------------|----------------|----------------|
----------------|----------------|----------------|----------------|


  H        Q       H        Q       H        Q       E  Q    Q.       
----------------|----------------|----------------|------------------|
----------------|----------------|----------------|------------------|
----------------|----------------|----------------|--3--5----5\------|
----------------|----------------|----------------|------------------|


  H.              E  Q    Q.         H.              E  Q    Q.       
---------------|------------------|---------------|------------------|
---------------|------------------|---------------|------------------|
---------------|--5--5----5\------|---------------|--5--3----3\------|
---------------|------------------|---------------|------------------|


  H.              E  Q    Q.         H.              Q.     Q    E   
---------------|------------------|---------------|-----------------|
---------------|------------------|---------------|-----------------|
---------------|--3--3----3\------|---------------|-----------------|
---------------|------------------|---------------|--5------5----5--|


  Q.     Q    E     Q.     Q    E     E  Q    Q    E     Q.     Q    E   
-----------------|-----------------|------------------|-----------------|
-----------------|-----------------|------------------|-----------------|
-----------------|-----------------|------------------|-----------------|
--5------5----5--|--5------5----5--|--4--4----4----4--|--3------3----3--|


  Q.     Q    E     E  Q    Q    E     E  Q    Q    E       Q     E   Q.      
-----------------|------------------|------------------|---------------------|
-----------------|------------------|------------------|---------------------|
-----------------|------------------|------------------|---------------------|
--3------3----3--|--6--6----6----6--|--6--6----6----6--|--/10-----Ls--1------|


  Q    E   Q.          Q     E   Q.        Q    E   Q.        H.            
------------------|---------------------|------------------|---------------|
------------------|---------------------|------------------|---------------|
------------------|---------------------|------------------|---------------|
--3----Ls--8------|--/10-----Ls--1------|--3----Ls--8------|--5------------|


  H.              H.              H.              Q.     Q    E   
---------------|---------------|---------------|-----------------|
---------------|---------------|---------------|-----------------|
---------------|---------------|---------------|-----------------|
--L------------|--L------------|--4------------|--3------3----3--|


  Q.     Q    E     E  Q    Q    E      E  Q    Q    E     Q.     Q    E   
-----------------|-------------------|------------------|-----------------|
-----------------|-------------------|------------------|-----------------|
-----------------|-------------------|------------------|-----------------|
--3------3----3--|--6--6----6----6s--|--9--9----9----9--|--5------5----5--|


  Q.     Q    E     Q.     Q    E     E  Q    Q    E     Q.     Q    E   
-----------------|-----------------|------------------|-----------------|
-----------------|-----------------|------------------|-----------------|
-----------------|-----------------|------------------|-----------------|
--5------5----5--|--5------5----5--|--4--4----4----4--|--3------3----3--|


  Q.     Q    E     E  Q    Q    E      E  Q    Q    E     Q    E  E  E  E   
-----------------|-------------------|------------------|-------------------|
-----------------|-------------------|------------------|-------------------|
-----------------|-------------------|------------------|-------------------|
--3------3----3--|--6--6----6----6s--|--9--9----9----9--|--5----5--5--5--5--|


  Q    E  E  E  E     Q    E  E  E  E     Q    E  E  E  E     Q    E  E  E  E   
-------------------|-------------------|-------------------|-------------------|
-------------------|-------------------|-------------------|-------------------|
-------------------|-------------------|-------------------|-------------------|
--5----5--5--5--5--|--5----5--5--5--5--|--4----4--4--4--4--|--3----3--3--3--3--|


  Q    E  E  E  E     E  Q    Q    E      E  Q    Q    E     Q.     Q    E   
-------------------|-------------------|------------------|-----------------|
-------------------|-------------------|------------------|-----------------|
-------------------|-------------------|------------------|-----------------|
--3----3--3--3--3--|--6--6----6----6s--|--9--9----9----9--|--5------5----5--|


  Q.     Q    E     Q.     Q    E     E  Q    Q    E     Q.     Q    E   
-----------------|-----------------|------------------|-----------------|
-----------------|-----------------|------------------|-----------------|
-----------------|-----------------|------------------|-----------------|
--5------5----5--|--5------5----5--|--4--4----4----4--|--3------3----3--|


  Q.     Q    E     E  Q    Q    E      Q     H           H        Q     
-----------------|-------------------|-----------------|----------------|
-----------------|-------------------|-----------------|----------------|
-----------------|-------------------|-----------------|----------------|
--3------3----3--|--6--6----6----6s--|--9\-------------|----------------|


  H        Q       H        Q       H        Q       H        Q     
----------------|----------------|----------------|----------------|
----------------|----------------|----------------|----------------|
----------------|----------------|----------------|----------------|
----------------|----------------|----------------|----------------|


  H        Q       H        Q       H        Q       H        Q     
----------------|----------------|----------------|----------------|
----------------|----------------|----------------|----------------|
----------------|----------------|----------------|----------------|
----------------|----------------|----------------|----------------|


  H        Q       H        Q       H        Q       H        Q     
----------------|----------------|----------------|----------------|
----------------|----------------|----------------|----------------|
----------------|----------------|----------------|----------------|
----------------|----------------|----------------|----------------|


  H        Q       H        Q       H        Q       H        Q     
----------------|----------------|----------------|----------------|
----------------|----------------|----------------|----------------|
----------------|----------------|----------------|----------------|
----------------|----------------|----------------|----------------|


  H        Q       H        Q       H        Q       H        Q     
----------------|----------------|----------------|----------------|
----------------|----------------|----------------|----------------|
----------------|----------------|----------------|----------------|
----------------|----------------|----------------|----------------|


  H        Q       H        Q       H        Q       H        Q     
----------------|----------------|----------------|----------------|
----------------|----------------|----------------|----------------|
----------------|----------------|----------------|----------------|
----------------|----------------|----------------|----------------|


  H        Q       H        Q       H        Q       H        Q     
----------------|----------------|----------------|----------------|
----------------|----------------|----------------|----------------|
----------------|----------------|----------------|----------------|
----------------|----------------|----------------|----------------|


  H        Q       H        Q       H        Q       H        Q     
----------------|----------------|----------------|----------------|
----------------|----------------|----------------|----------------|
----------------|----------------|----------------|----------------|
----------------|----------------|----------------|----------------|


  H        Q       H        Q       H        Q       H        Q     
----------------|----------------|----------------|----------------|
----------------|----------------|----------------|----------------|
----------------|----------------|----------------|----------------|
----------------|----------------|----------------|----------------|


  H        Q       H        Q       H        Q       H        Q     
----------------|----------------|----------------|----------------|
----------------|----------------|----------------|----------------|
----------------|----------------|----------------|----------------|
----------------|----------------|----------------|----------------|


  H        Q       H        Q       H        Q       H        Q     
----------------|----------------|----------------|----------------|
----------------|----------------|----------------|----------------|
----------------|----------------|----------------|----------------|
----------------|----------------|----------------|----------------|


  H        Q       H        Q       H        Q       H        Q     
----------------|----------------|----------------|----------------|
----------------|----------------|----------------|----------------|
----------------|----------------|----------------|----------------|
----------------|----------------|----------------|----------------|


  H        Q       H        Q       H        Q       H        Q     
----------------|----------------|----------------|----------------|
----------------|----------------|----------------|----------------|
----------------|----------------|----------------|----------------|
----------------|----------------|----------------|----------------|


  H        Q      
----------------||
----------------||
----------------||
----------------||




Duration Legend
---------------
W - whole
H - half
Q - quarter
E - 8th
S - 16th
T - 32nd
X - 64th
. - note dotted
|-n-|  - n-tuplets


Tablature Legend
----------------
L - tied note
x - dead note
g - grace note
(n) - ghost note
> - accentuded note
NH - natural harmonic
AH - artificial harmonic
TH - tapped harmonic
SH - semi harmonic
PH - pitch harmonic
h - hammer on
p - pull off
b - bend
br - bendRelease
pb - preBend
pbr - preBendRelease
brb - bendReleaseBend
\n/ - tremolo bar dip
\n - tremolo bar dive
-/n - tremolo bar Release up
/n\ - tremolo bar inverted dip
/n - tremolo bar return
-\n - tremolo bar Release down
S - shift slide
s - legato slide
/ -  slide into from below or out of upwards
\ -  slide into from above or out of downwards
~ - vibrato
W - wide vibrato
tr - trill
TP - tremolo picking
T - tapping
S - slap
P - pop
< - fade in
^ - brush up
v - brush down





Comments


Popular Circa Survive tabs & chords
Get Out Bass Tabs
Frozen Creek Chords
Suitcase Chords
In Fear And Faith Drum Tabs
Every Way 1 Tabs
In The Morning And Amazing 1 Tabs
In The Morning And Amazing.. Tabs
Meet Me In Montauk 1 Tabs
I Felt Free 2 Ukulele
Lazarus Ukulele


Song lyrics



↑ Back to top | Tablatures and chords are parodies/interpretations of the original songs. You may use it for private study, scholarship, research or language learning purposes only
© 2014 AZChords.com Contact us | Privacy policy | DMCA | Add/correct tabs | Request tabs | Top 50 tabs