>
 >
Holding Someone's Hair Back

Holding Someone's Hair Back Guitar Tabs

Circa Survive - Holding Someone's Hair Back chords, tabs, tablatures, lyrics

Guitar lessons | Add/correct | Request | Top 50 tabs Artists:  A B C D E F G H I J K L M N O P Q R S T U V W X Y Z 0-9

Holding Someone's Hair Back Guitar Tabs – Circa Survive

CD, Sheet music, Poster

Do you like Holding Someone's Hair Back? Share with your friends now
Bass TabsTabs
Label: Equal Vision

Gtr I (Eb Ab Db Gb Bb Eb) - 'Brendan'
Gtr II (Eb Ab Db Gb Bb Eb) - 'Colin'


 Q=187
3/4
 Gtr I
 H.        +H.        +H.        H.
|-0-------|-(0)------|-(0)------|-0-----|
|-6-------|-(6)------|-(6)------|-6-----|
|-7-------|-(7)------|-(7)------|-7-----|
|---------|----------|----------|-------|
|---------|----------|----------|-------|
|---------|----------|----------|-------|


 H.        +H.        H.        +H.
|-0-------|-(0)------|-0-------|-(0)----|
|-3-------|-(3)------|-3-------|-(3)----|
|-0-------|-(0)------|-1-------|-(1)----|
|---------|----------|---------|--------|
|---------|----------|---------|--------|
|---------|----------|---------|--------|


 H.        +H.        +H.        H.
|-0-------|-(0)------|-(0)------|-0-----|
|-6-------|-(6)------|-(6)------|-6-----|
|-7-------|-(7)------|-(7)------|-7-----|
|---------|----------|----------|-------|
|---------|----------|----------|-------|
|---------|----------|----------|-------|


 Gtr I
 H.        +H.        H.          +H.
|-0-------|-(0)------|-0---------|-(0)---------|
|-3-------|-(3)------|-3---------|-(3)---------|
|-0-------|-(0)------|-1---------|-(1)---------|
|---------|----------|-----------|-------------|
|---------|----------|-----------|-------------|
|---------|----------|-----------|-------------|
|
| Gtr II
| H.         H.        q   q  q     q   q  q
|---------|----------|-x---x--x--|--x---x--x---|
|---------|----------|-----------|-------------|
|---------|----------|-----------|-------------|
|---------|----------|-----------|-------------|
|---------|----------|-----------|-------------|
|---------|----------|-----------|-------------|


   H.          +H.           +H.           H.
||--0---------|-(0)---------|-(0)---------|-0----------|
||o-6---------|-(6)---------|-(6)---------|-6----------|
||--7---------|-(7)---------|-(7)---------|-7----------|
||------------|-------------|-------------|------------|
||o-----------|-------------|-------------|------------|
||------------|-------------|-------------|------------|
|
|   E q  q  E    q   E q  E    q   E q  E   E  q  q  E
||------------|-------------|-------------|------------|
||o-----------|-------------|-------------|------------|
||------------|-------------|-------------|------------|
||--2S3--3----|--3-----3----|--3-----3----|-3--3--3----|
||o-3S5--5----|--5-----5----|--5-----5----|-5--5--5----|
||------------|-------------|-------------|------------|


 H.          +H.           H.          +H.           3x
|-0---------|-(0)---------|-0---------|-(0)-----------||
|-3---------|-(3)---------|-3---------|-(3)----------o||
|-0---------|-(0)---------|-1---------|-(1)-----------||
|-----------|-------------|-----------|---------------||
|-----------|-------------|-----------|--------------o||
|-----------|-------------|-----------|---------------||
|
| E q  q  E    q   E q  E   E q  q  E    E  q  q  E   3x
|-----------|-------------|-----------|---------------||
|-----------|-------------|-----------|--------------o||
|-----------|-------------|-----------|---------------||
|-2S3--3----|--3-----3----|-3S2--2----|--2--2--2------||
|-3S5--5----|--5-----5----|-5S3--3----|--3--3--3-----o||
|-----------|-------------|-----------|---------------||


 H.          +H.           +H.           H.
|-0---------|-(0)---------|-(0)---------|-0-----------|
|-6---------|-(6)---------|-(6)---------|-6-----------|
|-7---------|-(7)---------|-(7)---------|-7-----------|
|-----------|-------------|-------------|-------------|
|-----------|-------------|-------------|-------------|
|-----------|-------------|-------------|-------------|
|
| E q  q  E    q   E q  E    q   E q  E   E  q  q  E
|-----------|-------------|-------------|-------------|
|-----------|-------------|-------------|-------------|
|-----------|-------------|-------------|-------------|
|-2S3--3----|--3-----3----|--3-----3----|-3--3--3-----|
|-3S5--5----|--5-----5----|--5-----5----|-5--5--5-----|
|-----------|-------------|-------------|-------------|


 H.          +H.           +H.           +H.
|-0---------|-(0)---------|-(0)---------|-(0)----------|
|-3---------|-(3)---------|-(3)---------|-(3)----------|
|-0---------|-(0)---------|-(0)---------|-(0)----------|
|-----------|-------------|-------------|--------------|
|-----------|-------------|-------------|--------------|
|-----------|-------------|-------------|--------------|
|
| E q  q  E    q   E q  E    q   E q  E    q   E q  E
|-----------|-------------|-------------|--------------|
|-----------|-------------|-------------|--------------|
|-----------|-------------|-------------|--------------|
|-2S3--3----|--3-----3----|--3-----3----|--3-----3-----|
|-3S5--5----|--5-----5----|--5-----5----|--5-----5-----|
|-----------|-------------|-------------|--------------|


 H.        +H.        +H.        H.
|-0-------|-(0)------|-(0)------|-0------------|
|-6-------|-(6)------|-(6)------|-6------------|
|-7-------|-(7)------|-(7)------|-7------------|
|---------|----------|----------|--------------|
|---------|----------|----------|--------------|
|---------|----------|----------|--------------|
|
| H.        +H.        +H.        E E E E E E
|-5-------|-(5)------|-(5)------|--------------|
|-5-------|-(5)------|-(5)------|-5h6p5--------|
|---------|----------|----------|-------5h7p5--|
|---------|----------|----------|--------------|
|---------|----------|----------|--------------|
|---------|----------|----------|--------------|


 H.        +H.        H.        +H.
|-0-------|-(0)------|-0-------|-(0)----|
|-3-------|-(3)------|-3-------|-(3)----|
|-0-------|-(0)------|-1-------|-(1)----|
|---------|----------|---------|--------|
|---------|----------|---------|--------|
|---------|----------|---------|--------|
|
| H.        +H.        H.         H.
|---------|----------|---------|--------|
|---------|----------|-6-------|--5-----|
|---------|----------|---------|--------|
|-5-------|-(5)------|---------|--------|
|---------|----------|---------|--------|
|---------|----------|---------|--------|


 H.        +H.        +H.        H.
|-0-------|-(0)------|-(0)------|-0------------|
|-6-------|-(6)------|-(6)------|-6------------|
|-7-------|-(7)------|-(7)------|-7------------|
|---------|----------|----------|--------------|
|---------|----------|----------|--------------|
|---------|----------|----------|--------------|
|
| H.        +H.        +H.        E E E E E E
|-5-------|-(5)------|-(5)------|--------------|
|-5-------|-(5)------|-(5)------|-5h6p5--------|
|---------|----------|----------|-------5h7p5--|
|---------|----------|----------|--------------|
|---------|----------|----------|--------------|
|---------|----------|----------|--------------|


 H.        +H.        H.        Q   H
|-0-------|-(0)------|-0-------|-0--------|
|-3-------|-(3)------|-3-------|-3--------|
|-0-------|-(0)------|-1-------|-1--------|
|---------|----------|---------|----------|
|---------|----------|---------|----------|
|---------|----------|---------|----------|
|
|                      ~~
| H.        +H.        H.        Q   H
|---------|----------|---------|----------|
|---------|----------|---------|----------|
|---------|----------|---------|----------|
|-5-------|-(5)------|-5-------|-5\-------|
|---------|----------|---------|----------|
|---------|----------|---------|----------|


 Q  E Q      E      Q   E Q  E   Q   E Q  E    Q   E Q   E
|----------------|--------------|------------|---------------|
|----------------|--------------|------------|---------------|
|----------------|--------------|------------|---------------|
|------3---------|---------3----|-------3----|--------3------|
|----5--------5--|-------5----5-|-----5----5-|------5-----5--|
|-5--------------|---5----------|-5----------|--4------------|
|
|                    ~~~~
| H      +E  +E      H.           H.            Q.    Q.
|----------------|--------------|------------|---------------|
|----------------|-/10----------|------------|---------------|
|-2------(2)-(2)S|=(12)---------|-7----------|-10-----9------|
|----------------|--------------|------------|---------------|
|----------------|--------------|------------|---------------|
|----------------|--------------|------------|---------------|


 H     +E  E    Q   E Q   E   E  Q    Q.       Q    E  Q    E
|-------------|--------------|---------------|------------------|
|-------------|--------------|---------------|------------------|
|-------------|--------------|---------------|---------10-------|
|-------------|--------------|---------7-----|------12------12--|
|-5-----(5)-5-|--5---5-5---5-|----5----------|------------------|
|-3-----(3)-3-|--3---3-3---3-|-6-------------|-/9---------------|
|
| H.            +Q   Q   Q     E +E  E Q   E    Q.      Q.
|-------------|--------------|---------------|------------------|
|-------------|--------------|---------------|------------------|
|-------------|------7---7---|-7-(7)s5-5---5s|=12---------------|
|-7-----------|-(7)----------|---------------|---------10-------|
|-------------|--------------|---------------|------------------|
|-------------|--------------|---------------|------------------|


 Q   E Q  E   Q   E Q  E   Q   E Q  E    Q   E Q  E
|------------|------------|------------|--------------|
|------------|------------|------------|--------------|
|------------|------------|------------|--------------|
|-------3----|-------3----|-------3----|--------3-----|
|-----5----5-|-----5----5-|-----5----5-|------5----5--|
|-5----------|-5----------|-5----------|--4-----------|
|
| H.           H.           H.            H.
|------------|------------|------------|--------------|
|------------|------------|------------|--------------|
|------------|-7----------|-9----------|-10-----------|
|-7----------|------------|------------|--------------|
|------------|------------|------------|--------------|
|------------|------------|------------|--------------|


   Q.   Q  +E       +Q   E Q       E   E Q  Q  E   E Q  Q  E
|-----------------|-------------------|-----------|------------|
|-----------------|-------------------|-----------|------------|
|-----------------|-------------------|-----------|------------|
|-----------------|---------5---------|-5h7--7--7-|-5h7--7--7--|
|--------5--(5)b6r|==(5)--5---------5-|-----------|------------|
|---3-------------|-------------------|-----------|------------|
|
|   TP                TP        TP
|   H.               +H        +E   E   E Q  Q  E   Q.   Q  E
|-----------------|-------------------|-----------|------------|
|-----------------|-------------------|-----------|------------|
|-/17-------------|-(17)------(17)-17s|=7-7--7--7-|-7----7--7--|
|-----------------|-------------------|-----------|------------|
|-----------------|-------------------|-----------|------------|
|-----------------|-------------------|-----------|------------|


  Q     E  Q    E     Q   H         +H.           Q    E   Q    E
|-------------------|-------------|-------------|--------------------|
|-------------------|-------------|-------------|-15--(15)-----------|
|-10---(10)-9---(9)-|-10S=14------|-(14)--------|----------14--(14)--|
|-------------------|-------------|-------------|--------------------|
|-------------------|-------------|-------------|--------------------|
|-------------------|-------------|-------------|--------------------|
|
|  Q.       Q.         Q   E Q  E     Q.   Q.      Q   +E   Q    E
|-------------------|-------------|-------------|--------------------|
|-------------------|-------------|-------------|--------------------|
|-----------9-------|------7----7-|--------9----|--------------------|
|--7----------------|--8-----8----|---7---------|--8---(8)s15s===8---|
|-------------------|-------------|-------------|--------------------|
|-------------------|-------------|-------------|--------------------|


  H.           H.           E  Q    Q    E    Q    E   Q    E
|------------|-------------|----------------|--------------------|
|------------|-------------|----------------|--------------------|
|------------|-------------|----------------|----------10--------|
|-12---------|-12----------|---------7---(7)|------12-------12---|
|------------|-------------|----5-----------|--------------------|
|------------|-------------|-6-(6)--(6)---6s|==9-----------------|
|
|  Q.   Q.      Q   E Q  E   E  Q    Q.        Q    E   Q    E
|------------|-------------|----------------|----------12--(12)--|
|------------|-------------|----------------|--------------------|
|-------9----|------7----7-|-7-10---10------|-10--(10)-----------|
|--7---------|--8-----8----|----------------|--------------------|
|------------|-------------|----------------|--------------------|
|------------|-------------|----------------|--------------------|


 Q  E Q      E     Q   E Q  E   Q  E Q   E    Q   E Q  E
|----------------|-------------|------------|--------------|
|----------------|-------------|------------|--------------|
|----------------|-------------|------------|--------------|
|------3---------|--------3----|------3-----|--------3-----|
|----5--------5--|------5----5-|----5-----5-|------5----5--|
|-5--------------|--5----------|-5----------|--4-----------|
|
|                   ~~~
| H      +E  +E     H.           H      Q      H.
|----------------|-------------|------------|--------------|
|----------------|-------------|------------|--------------|
|-2------(2)-(2)S|=14----------|-7------7s==|=17-----------|
|----------------|-------------|------------|--------------|
|----------------|-------------|------------|--------------|
|----------------|-------------|------------|--------------|


  H      +E  E     Q   E Q  E    E  Q    Q     E     Q     E  Q    E
|---------------|--------------|-------------------|---------------------|
|---------------|--------------|-------------------|---------------------|
|---------------|--------------|-------------------|----------10---------|
|---------------|--------------|----------7----(7)-|-------12------12----|
|--5------(5)-5-|---5---5-5--5-|-----5-------------|---------------------|
|--3------(3)-3-|---3---3-3--3-|--6-(6)--(6)----6s=|==9------------------|
|
|  Q   H           +H.            E  Q    Q     E     E  Q     Q   +E
|---------------|--------------|---------13---(13)-|----------12--(12)\--|
|---------------|--------------|-------------------|---------------------|
|-14s=12--------|-(12)---------|----10-------------|----10---------------|
|---------------|--------------|-12----------------|-11------------------|
|---------------|--------------|-------------------|---------------------|
|---------------|--------------|-------------------|---------------------|


 Gtr I
 Q  E Q  E   Q  E Q  E   Q  E Q  E   Q  E Q  E
|------0----|------0----|------0----|------0-----|
|----6----6-|----6----6-|----6----6-|----6----6--|
|-7---------|-7---------|-7---------|-7----------|
|-----------|-----------|-----------|------------|
|-----------|-----------|-----------|------------|
|-----------|-----------|-----------|------------|


 Gtr I
 Q   E Q  E   Q   E Q  E   Q   E Q  E   Q  E Q      E
|-------0----|-------0----|-------0----|------0-----------|
|-----3----3-|-----3----3-|-----3----3-|----3--------3----|
|-0----------|-0----------|-1----------|-1----------------|
|------------|------------|------------|------------------|
|------------|------------|------------|------------------|
|------------|------------|------------|------------------|
|
| Gtr II
| H.           H.           H.           H       E  +E
|------------|------------|------------|------------------|
|------------|------------|------------|--------10-(10)S==|
|------------|------------|------------|------------------|
|------------|------------|------------|------------------|
|------------|------------|------------|------------------|
|------------|------------|------------|------------------|


  Q   E Q  E     Q   E Q  E     Q   E Q  E    Q   E Q      E
|--------0----|---------0----|---------0----|--------0-----------|
|------6----6-|-------6----6-|-------6----6-|------6--------6----|
|--7----------|---7----------|---7----------|--7-----------------|
|-------------|--------------|--------------|--------------------|
|-------------|--------------|--------------|--------------------|
|-------------|--------------|--------------|--------------------|
|
|  TP             TP             TP
|  H.            +H.            +H.            Q   Q    E  +E
|-------------|--------------|--------------|--------------------|
|-17----------|-(17)---------|-(17)---------|-17\------10-(10)S==|
|-------------|--------------|--------------|--------------------|
|-------------|--------------|--------------|--------------------|
|-------------|--------------|--------------|--------------------|
|-------------|--------------|--------------|--------------------|


  Q   E Q  E     Q   E Q  E    Q           E       Q              E
|--------0----|---------0----|----------------------0-----------------|
|------3----3-|-------3----3-|--------------3----------------------3--|
|--0----------|---0----------|--1-------------------------------------|
|-------------|--------------|----------------------------------------|
|-------------|--------------|----------------------------------------|
|-------------|--------------|----------------------------------------|
|
|  TP             TP
|  H.            +H.            E     +E   +E      +E   +E        +E
|-------------|--------------|----------------------------------------|
|-17----------|-(17)---------|-13b15r(13)-(13)b15r(13)-(13)b14.5r(13)-|
|-------------|--------------|----------------------------------------|
|-------------|--------------|----------------------------------------|
|-------------|--------------|----------------------------------------|
|-------------|--------------|----------------------------------------|


   ~~~~~~~~~~
   H.
|---------------------------------------------|
|---3-----------------------------------------|
|---------------------------------------------|
|---------------------------------------------|
|---------------------------------------------|
|---------------------------------------------|
|
|  +E        +E   +E      +E   +E        +E
|---------------------------------------------|
|-(13)b14.5r(13)-(13)b14r(13)-(13)b13.5r(13)--|
|---------------------------------------------|
|---------------------------------------------|
|---------------------------------------------|
|---------------------------------------------|


 E E  E E E  E   E E  E E E E    E E E  E E E    E E E E  E E
|---------------|--------------|---------------|----------------|
|---------------|--------------|---------------|----------------|
|-9p7----9p7----|-9p7-10p7-9p7-|----9p7----9p7-|-10p7-9p7-------|
|-----10-----10-|--------------|-10-----10-----|----------10p7--|
|---------------|--------------|---------------|----------------|
|---------------|--------------|---------------|----------------|
|
| E Q    Q    E   E E  E Q   E    E E E  Q   E    E E E Q    E
|---------------|--------------|---------------|----------------|
|---------------|--------------|---------------|----------------|
|---------------|--------------|---------------|----------------|
|---------------|--------------|---------------|----------------|
|-3-5----5----5-|-5-5--5-5---5-|--5-5-5--5---5-|--5-5-5-5----5--|
|---------------|--------------|---------------|----------------|


 E E  E E E  E   E E  E E E E    E E E  E E E   E  E E E E  E
|---------------|--------------|---------------|----------------|
|---------------|--------------|---------------|----------------|
|-9p7----9p7----|-9p7-10p7-9p7-|----9p7----7h9p|=7----7h9p7-----|
|-----10-----10-|--------------|-10-----10-----|---10-------10--|
|---------------|--------------|---------------|----------------|
|---------------|--------------|---------------|----------------|
|
| E Q    Q    E   E E  E Q   E    E E E  Q   E   E  E E Q    E
|---------------|--------------|---------------|----------------|
|---------------|--------------|---------------|----------------|
|---------------|--------------|---------------|----------------|
|---------------|--------------|---------------|----------------|
|-5-3----3----3-|-3-3--3-3---3-|--3-3-3--3---3-|-3--3-3-3----3--|
|---------------|--------------|---------------|----------------|


 E E  E E E  E   E E  E E E E    E E E  E E E    E E E E  E E
|---------------|--------------|---------------|----------------|
|---------------|--------------|---------------|----------------|
|-9p7----9p7----|-9p7-10p7-9p7-|----9p7----9p7-|-10p7-9p7-10p7--|
|-----10-----10-|--------------|-10-----10-----|----------------|
|---------------|--------------|---------------|----------------|
|---------------|--------------|---------------|----------------|
|
| E Q    Q    E   E E  E Q   E    E E E  Q   E    E E E Q    E
|---------------|--------------|---------------|----------------|
|---------------|--------------|---------------|----------------|
|---------------|--------------|---------------|----------------|
|---------------|--------------|---------------|----------------|
|-3-5----5----5-|-5-5--5-5---5-|--5-5-5--5---5-|--5-5-5-5----5--|
|---------------|--------------|---------------|----------------|


 E E  E E E  E   E E  E E E E    E E E  E E E   E  E  E E  E E
|---------------|--------------|---------------|-----------------|
|---------------|--------------|---------------|-----------------|
|-9p7----9p7----|-9p7-10p7-9p7-|----9p7----9p7-|-9p=7--9p7--9p7--|
|-----10-----10-|--------------|-10-----10-----|-----------------|
|---------------|--------------|---------------|-----------------|
|---------------|--------------|---------------|-----------------|
|
| E Q    Q    E   E E  E Q   E    E E E  Q   E   E  Q.      Q
|---------------|--------------|---------------|-----------------|
|---------------|--------------|---------------|-----------10----|
|---------------|--------------|---------------|-----------------|
|---------------|--------------|---------------|-----------------|
|-5-3----3----3-|-3-3--3-3---3-|--3-3-3--3---3-|-3s22------------|
|---------------|--------------|---------------|-----------------|


  E E  E  E E  E    E        E   E        E   E        E
|-----------------|----------------------------------------|
|-----------------|----------------------------------------|
|--9p7-----9p7----|--9p=======7--10p=======7---9p=======7--|
|------10------10-|----------------------------------------|
|-----------------|----------------------------------------|
|-----------------|----------------------------------------|
|
|  Q.      Q.        E       +E   E       +E   E       +E
|-10--------------|-12b12.5r(12)-12b12.5r(12)-12b12.5r(12)-|
|---------10------|----------------------------------------|
|-----------------|----------------------------------------|
|-----------------|----------------------------------------|
|-----------------|----------------------------------------|
|-----------------|----------------------------------------|


  E        E   E        E   E        E     E        E   E        E   E E
|----------------------------------------|---------------------------------|
|----------------------------------------|---------------------------------|
|-----------9p==7------------9p=======7--|-10p=======7---9p=======7--------|
|-10--------------------10---------------|---------------------------10p7--|
|----------------------------------------|---------------------------------|
|----------------------------------------|---------------------------------|
|
|  E       +E   E       +E   E       +E     E       +E   E       +E   Q
|-12b12.5r(12)-12b12.5r(12)-12b12.5r(12)-|-12b12.5r(12)-12b12.5r(12)-------|
|----------------------------------------|---------------------------10----|
|----------------------------------------|---------------------------------|
|----------------------------------------|---------------------------------|
|----------------------------------------|---------------------------------|
|----------------------------------------|---------------------------------|


  E E  E  E E  E    E E  E E  E E
|-----------------|----------------|
|-----------------|----------------|
|--9p7-----9p7----|--9p7-10p7--9p7-|
|------10------10-|----------------|
|-----------------|----------------|
|-----------------|----------------|
|
|  Q.      Q.        Q.     Q.
|-10--------------|----------------|
|---------10------|----------------|
|-----------------|-10------9------|
|-----------------|----------------|
|-----------------|----------------|
|-----------------|----------------|


  E      E  E      E  E      E    E      E  E      E   E  E
|--------------------------------|----------------------------|
|--------------------------------|----------------------------|
|---------9p=7---------7h=====9p=|=7---------7h=====9p==7-----|
|-10---------------10------------|-------10---------------10--|
|--------------------------------|----------------------------|
|--------------------------------|----------------------------|
|
|  E     +E  E     +E  E     +E    E     +E  E     +E   Q
|--------------------------------|----------------------------|
|--------------------------------|---------------------10-----|
|--9b9.5r(9)-9b9.5r(9)-9b9.5r(9)-|-9b9.5r(9)-9b9.5r(9)--------|
|--------------------------------|----------------------------|
|--------------------------------|----------------------------|
|--------------------------------|----------------------------|


  E E  E  E E  E    E E  E E E E
|-----------------|---------------|
|-----------------|---------------|
|--9p7-----9p7----|--9p7-10p7-9p7-|
|------10------10-|---------------|
|-----------------|---------------|
|-----------------|---------------|
|
|  Q.      Q.        H.
|-10--------------|-12------------|
|---------10------|---------------|
|-----------------|---------------|
|-----------------|---------------|
|-----------------|---------------|
|-----------------|---------------|


  E        E   E        E   E        E     E        E   E        E   Q
|----------------------------------------|--------------------------------|
|----------------------------------------|--------------------------------|
|-----------9p==7------------9p=======7--|-10p=======7---9p=======7-------|
|-10--------------------10---------------|---------------------------10---|
|----------------------------------------|--------------------------------|
|----------------------------------------|--------------------------------|
|
|  E       +E   E       +E   E       +E     E       +E   E       +E   Q
|-12b13.5r(12)-12b12.5r(12)-12b12.5r(12)-|-12b12.5r(12)-12b12.5r(12)------|
|----------------------------------------|---------------------------10---|
|----------------------------------------|--------------------------------|
|----------------------------------------|--------------------------------|
|----------------------------------------|--------------------------------|
|----------------------------------------|--------------------------------|


                                                   ~~~~~~~~~~~
  E  E  E  E  E  E     E  E  E  E  E  E    E   Q   Q.      H.
|--------------------|-------------------|---------------|---------------|
|--------------------|-------------------|---------------|---------------|
|--------------------|-------------------|---------------|---------------|
|-10h12p10-----------|-------------------|---------------|---------------|
|----------12p10-----|-10h12p10----------|---------------|---------------|
|----------------13p-|----------12h13p12-|--8s=10--10----|-10------------|
|
|  Q.       Q.          Q.       Q.        +H.             +H     +Q
|-10-----------------|-------------------|---------------|---------------|
|----------10--------|-------------------|---------------|---------------|
|--------------------|-10--------9-------|-(9)-----------|-(9)----(9)\---|
|--------------------|-------------------|---------------|---------------|
|--------------------|-------------------|---------------|---------------|
|--------------------|-------------------|---------------|---------------|


 H.        +H.        +H.        H.
|-0-------|-(0)------|-(0)------|-0---------------|
|-6-------|-(6)------|-(6)------|-6---------------|
|-7-------|-(7)------|-(7)------|-7---------------|
|---------|----------|----------|-----------------|
|---------|----------|----------|-----------------|
|---------|----------|----------|-----------------|
|
| H.        +H.        +H.        Q    E  Q   E
|---------|----------|----------|-----------------|
|---------|----------|----------|-5---(5)---------|
|---------|----------|----------|---------5--(5)--|
|-5-------|-(5)------|-(5)------|-----------------|
|-3-------|-(3)------|-(3)------|-----------------|
|-5-------|-(5)------|-(5)------|-----------------|


 H.          +H.         H.                +H.
|-0---------|-(0)------|--0---------------|-(0)---------------|
|-3---------|-(3)------|--3---------------|-(3)---------------|
|-0---------|-(0)------|--1---------------|-(1)---------------|
|-----------|----------|------------------|-------------------|
|-----------|----------|------------------|-------------------|
|-----------|----------|------------------|-------------------|
|
| E Q  Q  E    H.         Q     E  Q   E     Q     E  Q   E
|-----------|----------|------------------|-------------------|
|-----------|----------|------------------|-------------------|
|-----------|--7-------|-10---(10)-7--(7)-|-10---(10)-7--(7)--|
|-5h7--7--7-|--7-------|------------------|-------------------|
|-----------|----------|------------------|-------------------|
|-----------|----------|------------------|-------------------|


 H.        +H.        +H.        H.
|-0-------|-(0)------|-(0)------|-0---------------|
|-6-------|-(6)------|-(6)------|-6---------------|
|-7-------|-(7)------|-(7)------|-7---------------|
|---------|----------|----------|-----------------|
|---------|----------|----------|-----------------|
|---------|----------|----------|-----------------|
|
| H.        +H.        +H.        Q    E  Q   E
|---------|----------|----------|-----------------|
|---------|----------|----------|-5---(5)---------|
|-5-------|-(5)------|-(5)------|---------5--(5)--|
|-5-------|-(5)------|-(5)------|-----------------|
|---------|----------|----------|-----------------|
|---------|----------|----------|-----------------|


 H.          +H.         H.        +H.
|-0---------|-(0)------|--0-------|-(0)-------------|
|-3---------|-(3)------|--3-------|-(3)-------------|
|-0---------|-(0)------|--1-------|-(1)-------------|
|-----------|----------|----------|-----------------|
|-----------|----------|----------|-----------------|
|-----------|----------|----------|-----------------|
|
|                                         >
|              TP         TP
| E Q  Q  E    H.         H.         q    q    q
|-----------|----------|----------|-----------------|
|-----------|--5-------|----------|-----------------|
|-----------|----------|--5-------|--5---(5)--(5)---|
|-5h7--7--7-|-h7-------|-(7)------|-----------------|
|-----------|----------|----------|-----------------|
|-----------|----------|----------|-----------------|
              H.        +H.


                  <
                                       ~~
 H.               Q   E Q  E     Q   E Q.      H.
|---------------|-------------|---------7----|--------|
|---------------|--5---6-5--6-|---5---6------|--------|
|---------------|-------------|--------------|--------|
|---------------|-------------|--------------|--------|
|---------------|-------------|--------------|--------|
|-5-------------|-(5)---------|--(5)---------|--4-----|
| H.              +H.            +H.            H.
|
| H     +E  +E     H.            +H.            H.
|---------------|-------------|--------------|--------|
|---------------|-------------|--------------|--------|
|-2-----(2)-(2)S|=14----------|-(14)---------|-13-----|
|---------------|-------------|--------------|--------|
|---------------|-------------|--------------|--------|
|---------------|-------------|--------------|--------|


                                          ~~~
 Q   E Q  E    Q    E  Q    E    E  Q     Q      E    Q    E  Q    E
|------------|------------------|-------------------|------------------|
|------------|------------------|---------[5]-------|------------------|
|------------|------------------|-------------------|---------10-------|
|------------|--5---(5)---------|-------------------|------12------12--|
|-------5----|----------5---(5)-|----5--------------|------------------|
|-3---3----3-|------------------|-6-----------(6)-6s|==9---------------|
|                                 H           +E  E    H.
|
| H.           +Q    Q    Q       E +E  E  Q      E    Q.      Q.
|------------|------------------|-------------------|------------------|
|------------|------------------|-------------------|------------------|
|------------|-------7----7-----|-7-(7)s5--5------5s|=12---------------|
|-7----------|-(7)--------------|-------------------|---------10-------|
|------------|------------------|-------------------|------------------|
|------------|------------------|-------------------|------------------|


 Q   E Q  E   Q   E Q  E   Q   E Q  E    Q   E Q  E
|------------|------------|------------|--------------|
|------------|------------|------------|--------------|
|------------|------------|------------|--------------|
|-------3----|-------3----|-------5----|--------3-----|
|-----5----5-|-----5----5-|-----5----5-|------5----5--|
|-5----------|-5----------|-5----------|--4-----------|
|
| H.           H.           H.            H.
|------------|------------|------------|--------------|
|------------|------------|------------|--------------|
|------------|-7----------|-9----------|-10-----------|
|-7----------|------------|------------|--------------|
|------------|------------|------------|--------------|
|------------|------------|------------|--------------|


   Q.   Q  +E       +Q   E Q       E   E Q  Q  E   E Q  Q  E
|-----------------|-------------------|-----------|------------|
|-----------------|-------------------|-----------|------------|
|-----------------|-------------------|-----------|------------|
|-----------------|---------5---------|-5h7--7--7-|-5h7--7--7--|
|--------5--(5)b6r|==(5)--5---------5-|-----------|------------|
|---3-------------|-------------------|-----------|------------|
|
|   TP                TP        TP
|   H.               +H        +E   E   E Q  Q  E   Q.   Q  E
|-----------------|-------------------|-----------|------------|
|-----------------|-------------------|-----------|------------|
|-/17-------------|-(17)------(17)-17s|=7-7--7--7-|-7----7--7--|
|-----------------|-------------------|-----------|------------|
|-----------------|-------------------|-----------|------------|
|-----------------|-------------------|-----------|------------|


  Q     E  Q    E     Q   H         +H.           Q    E   Q    E
|-------------------|-------------|-------------|--------------------|
|-------------------|-------------|-------------|-15--(15)-----------|
|-10---(10)-9---(9)-|-10S=14------|-(14)--------|----------14--(14)--|
|-------------------|-------------|-------------|--------------------|
|-------------------|-------------|-------------|--------------------|
|-------------------|-------------|-------------|--------------------|
|
|  Q.       Q.         Q   E Q  E     Q.   Q.      Q   +E   Q    E
|-------------------|-------------|-------------|--------------------|
|-------------------|-------------|-------------|--------------------|
|-----------9-------|------7----7-|--------9----|--------------------|
|--7----------------|--8-----8----|---7---------|--8---(8)s15s===8---|
|-------------------|-------------|-------------|--------------------|
|-------------------|-------------|-------------|--------------------|


                                  ~~~~~~~~~~~~~~~~~~~~~~~~~~~~~~~~~
 E  +E  Q    Q    E +E  Q   Q     H.             +H           +E    E
|----------------|---------------|--------------|------------------------|
|----------------|---------------|--------------|------------------------|
|-7--(7)s9----9--|-9-(9)s5s==7---|-7------------|-(7)----------(7)s=14---|
|----------------|---------------|--------------|------------------------|
|----------------|---------------|--------------|------------------------|
|----------------|---------------|--------------|------------------------|
|
| Q.       Q.      Q     E Q   E   E   Q   Q.      Q     E   Q       E
|----------------|---------------|--------------|-----------12-----(12)--|
|----------------|---------------|--------------|------------------------|
|----------9-----|-------7-----7-|-7--10--10----|-10---(10)--------------|
|-7--------------|-8-------8-----|--------------|------------------------|
|----------------|---------------|--------------|------------------------|
|----------------|---------------|--------------|------------------------|


  Q   Q   Q         Q    Q   Q     Q   Q   Q     Q    Q   Q
|-----------------|--------------|-------------|---------------|
|-15------15------|-17---15------|-15------15--|-17---15-------|
|-----14----------|----------14--|-----14------|----------14---|
|-----------------|--------------|-------------|---------------|
|-----------------|--------------|-------------|---------------|
|-----------------|--------------|-------------|---------------|
|
|                    ~~~
|  H      +E  +E     H.             H       Q     H.
|-----------------|--------------|-------------|---------------|
|-----------------|--------------|-------------|---------------|
|--2------(2)-(2)S|=14-----------|--7-------7s=|=17------------|
|-----------------|--------------|-------------|---------------|
|-----------------|--------------|-------------|---------------|
|-----------------|--------------|-------------|---------------|


  Q   Q   Q     Q    Q   Q     E  Q   Q   E    Q   H
|-------------|--------------|---------------|-----------*|
|-15------15--|-17---15------|---------------|-----------*|
|-----14------|----------14--|---------------|-----------*|
|-------------|--------------|---------------|-----------*|
|-------------|--------------|--5--5---5---5-|--5\-------*|
|-------------|--------------|--6--6---6---6-|--6\-------*|
|
|  Q   H         H.             E  Q   Q   E    Q   H
|-------------|--------------|---------------|-----------*|
|-------------|--------------|---------------|-----------*|
|-14s=12------|-12-----------|-10-10--10--10-|-10\-------*|
|-------------|--------------|-12-12--12--12-|-12\-------*|
|-------------|--------------|---------------|-----------*|
|-------------|--------------|---------------|-----------*|





Comments


Popular Circa Survive tabs & chords
Compendium Bass Tabs
Get Out Bass Tabs
The Glorious Nosebleed Bass Tabs
Devil Song Chords
Ill Find A Way Chords
Lazarus Chords
Sharp Practice Chords
Always Getting What You Want Tabs
Baby Girl 1 Tabs
Devil Song Ukulele


Song lyrics



↑ Back to top | Tablatures and chords are parodies/interpretations of the original songs. You may use it for private study, scholarship, research or language learning purposes only
© 2014 AZChords.com Contact us | Privacy policy | DMCA | Add/correct tabs | Request tabs | Top 50 tabs