» » »

Handshakes At Sunrise Tabs (ver.1)

Artists:  A B C D E F G H I J K L M N O P Q R S T U V W X Y Z # 

Handshakes At Sunrise Tabs (ver.1)

Circa Survive
Rating:
0/5 (0 votes)

Tabs too difficult? Try these video lessons and learn fast.
                (Intro)
                      S E    S  E   E    E     E    
E||-------|-------|--------------------------------|
B||-------|-------|----------------11--(11)--(11)--|
G||-------|-------|-----8-------8--------8---------|
D||-------|-------|--10----(10)---------------10---|
A||-------|-------|--------------------------------|
D||-------|-------|--------------------------------|


   S E    S  E   E    E     E      S E   S  E   E    E     E    
--------------------------------|------------------------------|
----------------11--(11)--(11)--|--------------11--(11)--(11)--|
-----8-------8--------8---------|----8------8--------8---------|
--10----(10)---------------10---|--9----(9)----------------9---|
--------------------------------|------------------------------|
--------------------------------|------------------------------|


  S E   S  E   E    E     E       S E    S  E   E    E     E    
------------------------------|--------------------------------|
--------------11--(11)--(11)--|----------------11--(11)--(11)--|
----8------8--------8---------|-----8-------8--------8---------|
--9----(9)----------------9---|--10----(10)---------------10---|
------------------------------|--------------------------------|
------------------------------|--------------------------------|


   S E    S  E   E    E     E      S E   S  E   E  E   E    
--------------------------------|--------------------------|
----------------11--(11)--(11)--|--------------11--9--(9)--|
-----8-------8--------8---------|----8------8------8-------|
--10----(10)---------------10---|--9----(9)------------9---|
--------------------------------|--------------------------|
--------------------------------|--------------------------|


  S E   S  E   E    E    E      Q.       Q.           Q.       S   S   Q     
----------------------------|--------------------|--------------------11----|
--------------11--(11)S--6--|--11------(11)------|--(11)--------------------|
----8------8----------------|--------------------|------------11-(11)-------|
--9----(9)------------------|--------------------|--------------------------|
----------------------------|--------------------|--------------------------|
----------------------------|--------------------|--------------------------|


  Q     Q      Q         Q      Q       Q         S E    S  E   E    E     E    
---------------------|------------------------|--------------------------------|
---------------------|------------------------|----------------11--(11)--(11)--|
--9----(9)----(9)----|------------------------|-----8-------8--------8---------|
---------------------|--11----(11)----(11)----|--10----(10)---------------10---|
---------------------|------------------------|--------------------------------|
---------------------|------------------------|--------------------------------|


   S E    S  E   E    E     E                                     
--------------------------------|---------------|---------------||
----------------11--(11)--(11)--|---------------|---------------||
-----8-------8--------8---------|---------------|---------------||
--10----(10)---------------10---|---------------|---------------||
--------------------------------|---------------|---------------||
--------------------------------|---------------|---------------||




Duration Legend
---------------
W - whole
H - half
Q - quarter
E - 8th
S - 16th
T - 32nd
X - 64th
. - note dotted
|-n-|  - n-tuplets


Tablature Legend
----------------
L - tied note
x - dead note
g - grace note
(n) - ghost note
> - accentuded note
NH - natural harmonic
AH - artificial harmonic
TH - tapped harmonic
SH - semi harmonic
PH - pitch harmonic
h - hammer on
p - pull off
b - bend
br - bendRelease
pb - preBend
pbr - preBendRelease
brb - bendReleaseBend
\n/ - tremolo bar dip
\n - tremolo bar dive
-/n - tremolo bar Release up
/n\ - tremolo bar inverted dip
/n - tremolo bar return
-\n - tremolo bar Release down
S - shift slide
s - legato slide
/ -  slide into from below or out of upwards
\ -  slide into from above or out of downwards
~ - vibrato
W - wide vibrato
tr - trill
TP - tremolo picking
T - tapping
S - slap
P - pop
< - fade in
^ - brush up
v - brush down
            
Tabs too difficult? Try these video lessons and learn fast.


comments powered by Disqus
↑ Back to top | Tablatures and chords are parodies/interpretations of the original songs. You may use it for private study, scholarship, research or language learning purposes only