» » »

Greatest Lie Tabs (ver.2)

Artists:  A B C D E F G H I J K L M N O P Q R S T U V W X Y Z # 

Greatest Lie Tabs (ver.2)

Circa Survive
Rating:
5/5 (1 vote)

Hard to play? Try these video lessons and learn fast.
                (Intro)
-------------------------------------------------------------------------------
                             The Greatest Lie – Circa Survive
-------------------------------------------------------------------------------

Tuning: eb,Bb,Gb,Db,Ab,Eb
Intro
eb|--------------------------------------------------|
Bb|-----5---8---------5---8--------5--7--------------|
Gb|--------------------------------------------------|  x5
Db|--------------------------------------------------|
Ab|--------------------------------------------------|
Eb|--------------------------------------------------|

eb|--------------------------------------------------|
Bb|---5/12-12------12---12---12---12-----12\10 10----|
Gb|--------------------------------------------------|
Db|--------------------------------------------------|
Ab|--------------------------------------------------|
Eb|--------------------------------------------------|

eb|--------------------------------------------------|
Bb|---10\8--8------8---8---8---8-----8/10-----10-----|
Gb|--------------------------------------------------|
Db|--------------------------------------------------|
Ab|--------------------------------------------------|
Eb|--------------------------------------------------|

eb|--------------------------------------------------|
Bb|----10---10---10---10/15-15---15---15---15\12-12--|
Gb|--------------------------------------------------|
Db|--------------------------------------------------|
Ab|--------------------------------------------------|
Eb|--------------------------------------------------|

eb|---------------------------------------15---15—17b|
Bb|---12---12---12/15--15----15---15--15-------------|
Gb|--------------------------------------------------|
Db|--------------------------------------------------|
Ab|--------------------------------------------------|
Eb|--------------------------------------------------|



| /  slide up
| \  slide down
| h  hammer-on
| p  pull-off
| ~  vibrato
| +  harmonic
| x  Mute note
===============================================================================
            
Hard to play? Try these video lessons and learn fast. | Correct




comments powered by Disqus
↑ Back to top | Tablatures and chords are parodies/interpretations of the original songs. You may use it for private study, scholarship, research or language learning purposes only