» » »

Circa Survive, Glass Arrows Bass tabs (ver.1)

Artists:  A B C D E F G H I J K L M N O P Q R S T U V W X Y Z # 

Glass Arrows Bass tabs (ver.1)

Circa Survive Tabs
 Rating:
4/5 (4 votes)
Glass Arrows lessons Tabs too difficult? Try these video lessons and learn fast
1
                -------------------------------------------------------------------------------
-------------------------------------------------------------------------------


 Tuning:Drop D

 Intro (0.28)
G|-------------------|
D|33-----------------|
A|-------------------|
D|---3---------------|

 (0.31 , 0.35 , 0.39)
G|------------------|
D|------------------|
A|88/---------------|
D|----3-------------|

G|-------------------------|
D|-------------------------|
A|---------66666666--------|
D|66666666-----------------|

 Verse
G|---------------------------------------------------------|
D|---------------------------------------------------------|
A|44444444--------------------888888888888-666666666666----|
D|---------66666-888888888888------------------------------|

G|---------------------------------------------------------|
D|---------------------------------------------------------|
A|----------444444444444-66666666666666666666666666666-----|
D|888888888------------------------------------------------|

 x2
G|---------------------|
D|---------------------|
A|6h88-6h88-6h8-6h8----|
D|---------------------|

 Chorus 
G|--------------------------------------------------|
D|--------------------------------------------------|
A|----------------------44444444444444444444444444--|
D|3333333-111111111111------------------------------|

G|--------------------------------------------------|
D|--------------------------------------------------|
A|----------------------111111111111111111111111111-|
D|3333333-111111111111------------------------------|

 Post Chorus x2
G|-------------------------------|
D|----6--------------------------|
A|888---88-----------------------|
D|---------6-6-88888888888-------|

G|------------------------------------------------------------------------|
D|------------------------------------------------------------------------|
A|888888888888-666666666666--------------------------88888888888-999999999|
D|--------------------------888888888888-66666666666----------------------|

-----------------------------------|
-----------------6/888888888888888-|
999-666666666666-------------------|
-----------------------------------|

 x2
G|---------------------|
D|---------------------|
A|6h88-6h88-6h8-6h8----|
D|---------------------|

 Pause
 
 Chorus
G|--------------------------------------------------|
D|--------------------------------------------------|
A|----------------------44444444444444444444444444--|
D|3333333-111111111111------------------------------|

G|--------------------------------------------------|
D|--------------------------------------------------|
A|----------------------111111111111111111-66666666-|
D|3333333-111111111111------------------------------|

 Pause

 (2.38)
G|---------------------------|
D|---------------------------|
A|------6666666666666666-----|
D|6--6-----------------------|

G|---------------------------------------------------------|
D|---------------------------------------------------------|
A|------------------44444444444444444----------66666666----|
D|88888888888888888-------------------88888888-------------|

 
 Chorus x2
G|--------------------------------------------------|
D|--------------------------------------------------|
A|----------------------44444444444444444444444444--|
D|3333333-111111111111------------------------------|

G|--------------------------------------------------|
D|--------------------------------------------------|
A|----------------------111111111111111111111111111-|
D|3333333-111111111111------------------------------|

 x4
G|---------------------|
D|---------------------|
A|6h88-6h88-6h8-6h8----|
D|---------------------|
            
Submit corrections

comments powered by Disqus
↑ Back to top | Circa Survive Bass for Glass Arrows. Lyrics for acoustic guitar and electric guitar. 1 Tablatures and chords are parodies/interpretations of the original songs. You may use it for private study, scholarship, research or language learning purposes only