» » »

Circa Survive, Frozen Creek Tabs (ver.2)

Artists:  A B C D E F G H I J K L M N O P Q R S T U V W X Y Z # 

Frozen Creek Tabs (ver.2)

Circa Survive Tabs
 Rating:
4.7/5 (15 votes)
Frozen Creek lessons Tabs too difficult? Try these video lessons and learn fast
                
Tuning: 
Guitar 1
Half Step Down

Guitar 2
If in Standard with a Capo on 4th Fret
If in Half Step Down (like Circa plays) Capo 5th Fret


Hey, this is the correct tab for Frozen Creek. 
This song is a new song off of Circa Survive's upcoming album. 
I am 100% positive that they play this song this way because I've seen them play it this way.
Please enjoy and contact me for any questions or issues!
Thank You.

Chords:
(in relation to chords with the Capo)
Em 022030 & 075000
Dsus x54050
Asus x02030
Bm x2x030
G 3x0030 & 355x00

Intro/Verse
Guitar 1 (Colin) is Silent until the end of the Chorus

Guitar 2 (Brandan)
e--0000-0-0-000000--000000000000000000--|
b--3333-3-3-000000--333300333300333355--|
g--0000-0-0-xxxxxx--000000000000000000--|
d--2222-0-2-555555--222222222222222244--|
a--2222-x---555555--333333333333333355--|
e--0000-3---333333----------------------|
"..drive way there sits a house..."

Pre Chorus
e--0---------------0----|
b--5---------------3----|
g--0---------------0----|
d--4---------------2----|
a--5---------------2----|
e------------------0----|
"I made a promise..anything..."

Chorus
e-0--0--0--0--0------|
b-3--3--3--5--0------|
g-0--0--0--0--0------|
d-2--x--2--4--5------|
a-0--2--3--5--7------|
e-------------0------|
"frozen creek, i would like to take you there..."

Then lead guitar comes in:
(Chorus Part through out song)
eb-------------15p12-------------|
bb--8p5-------------12h13p12-----|
gb-----4h5p4----------------14---|
db-----------7-------------------|
ab-------------------------------|
eb-------------------------------|
"..frozen creek, oh!"

Interlude (same as Intro/Verses)
Guitar 1
eb--7~--------------------------|
bb----8~------------------------|
gb------9~--7s9~-7s9~-----------|
db-------------------10~-9~-7~--|
ab------------------------------|
eb------------------------------|

Guitar 2 is the same

I have no part for the Pre Chorus so play this:
Guitar 1
eb-------------8-7---------------|
bb--8~-10~-8~-----10-8-10s13-13~-|
gb-----------9~------------------|
db-------------------------------|
ab-------------------------------|
eb-------------------------------|

Then the Chorus with both Guitars

The Outro is just Brendan's Chorus
e-0--0--0--0--0------|
b-3--3--3--5--0------|
g-0--0--0--0--0------|
d-2--x--2--4--5------|
a-0--2--3--5--7------|
e-------------0------|
"I would like to take you their"
            
Submit corrections

comments powered by Disqus
↑ Back to top | Circa Survive Tabs for Frozen Creek. Lyrics for acoustic guitar and electric guitar. Tablatures and chords are parodies/interpretations of the original songs. You may use it for private study, scholarship, research or language learning purposes only