» » »

Frozen Creek Bass tabs (ver.1)

Artists:  A B C D E F G H I J K L M N O P Q R S T U V W X Y Z # 

Frozen Creek Bass tabs (ver.1)

Circa Survive
Rating:
5/5 (1 vote)

Hard to play? Try these video lessons and learn fast.
                -------------------------------------------------------------------------------
-------------------------------------------------------------------------------


 Tuning:Drop D

  Chorus x4 (1.12)
G|-------------------------------------|
D|------------4~--6666666666666666-----|
A|4~--6~--7~---------------------------|
D|-------------------------------------|

 Post-Chorus
G|---------------------|
D|66666666666666-------|
A|---------------------|
D|---------------------|

 x2
G|----------------------------------------------------------------------------|
D|----------------------------------------------------------------------------|
A|-------------4444-/9------------------7777777777777777-777777777777-/99999--|
D|666666666666---------9999999999999999---------------------------------------|

 
 Verse x2
G|-------------------------------------------|
D|-------------------------------------------|
A|------4~--9~--------7~----7~---/99---------|
D|6~------------9~---------------------------|

 Pause

 Chorus x4 (2.49)


 Bridge
G|----------------------|
D|----------------------|
A|66666666666666666-----|
D|----------------------|

G|----------------------------------------------------------------------|
D|----------------------------------6666666666666666666666666666-\444---|
A|777777777777777777777777777-/9999-------------------------------------|
D|----------------------------------------------------------------------|

G|----------------------------------------------|
D|----------------------------------6~----------|
A|777777777777777777777777777-/9999-------------|
D|----------------------------------------------|

G|-------------------|
D|-------------------|
A|-------------------|
D|6-6-6-6-6-6-6-6----|


  Chorus x4

G|-------------------|
D|-------------------|
A|-------------------|
D|6-6-6-6-6-6-6/-----|
            
Hard to play? Try these video lessons and learn fast. | Correct




comments powered by Disqus
↑ Back to top | Tablatures and chords are parodies/interpretations of the original songs. You may use it for private study, scholarship, research or language learning purposes only