» » »

Circa Survive, Fever Dreams Bass tabs (ver.1)

Artists:  A B C D E F G H I J K L M N O P Q R S T U V W X Y Z # 

Fever Dreams Bass tabs (ver.1)

Circa Survive Tabs
 Rating:
4/5 (4 votes)
Fever Dreams lessons Tabs too difficult? Try these video lessons and learn fast
                -------------------------------------------------------------------------------
-------------------------------------------------------------------------------


 Tuning:Drop D

 Intro x2 (0.43)
G|--------------------------------|
D|--------------------------------|
A|---------------3~---------------|
D|7~--5~--2~---------2~-----------|

  
 Verse x2
G|---------------------------------------------------------------------|
D|7-7-7-7-7-7-7-7-7-7-7--7--5-5-/1212----------------------------------|
A|-7---7---7---7---7---7-----7--------3-3-3-3-3-3-3-3-3-3-3-3-5555-----|
D|-------------------------------------5---5---5---5---5---5-----------|

G|--------------|
D|--------------|
A|--------------|
D|7~------------|

 Bridge x10
G|-------------------------------------------------------------|
D|777777-5555555-----------------------------------------------|
A|---------------7777777777777-55555555555555-33333333333333---|
D|-------------------------------------------------------------|

G|--------------------------------|
D|7~------------------------------|
A|------------3~------------------|
D|------2~----------0~------------|

G|--------------------------------|
D|--------------------------------|
A|---------------3~---------------|
D|7~--5~--2~---------0~-----------|

 
G|---------------------------------------------------------|
D|---------------------------------------------------------|
A|--------------------------------------333333333333333----|
D|777-555-222222222222-0000000000000000--------------------|

G|---------------------------------------------------------|
D|---------------------------------------------------------|
A|--------------------------------------33333333333-/5555--|
D|777-555-222222222222-0000000000000000--------------------|

 x2
G|-----------------------------------------------|
D|-----------------------------------------------|
A|---------------------3333333333-5555555555-----|
D|777-555-222222222222---------------------------|

G|---------------------------------------------------------|
D|---------------------------------------------------------|
A|--------------------------------------333333333333333----|
D|777-555-222222222222-0000000000000000--------------------|

G|---------------------------------------------------------|
D|---------------------------------------------------------|
A|--------------------------------------33333333333-/5555--|
D|777-555-222222222222-0000000000000000--------------------|

 x2
G|-----------------------------------------------|
D|-----------------------------------------------|
A|---------------------3333333333-5555555555-----|
D|777-555-222222222222---------------------------|


G|-------------------|
D|-------------------|
A|-------------------|
D|7~-----------------|
            
Submit corrections

comments powered by Disqus
↑ Back to top | Circa Survive Bass for Fever Dreams. Lyrics for acoustic guitar and electric guitar. Tablatures and chords are parodies/interpretations of the original songs. You may use it for private study, scholarship, research or language learning purposes only