» » »

Circa Survive, Dyed In The Wool Bass tabs (ver.1)

Artists:  A B C D E F G H I J K L M N O P Q R S T U V W X Y Z # 

Dyed In The Wool Bass tabs (ver.1)

Circa Survive Tabs
Rating:
0/5 (0 votes)
Dyed In The Wool lessons Tabs too difficult? Try these video lessons and learn fast
                -------------------------------------------------------------------------------
-------------------------------------------------------------------------------


 Tuning:Drop D

 Intro
G|---------------------------------------------------------------------------|
D|---------------------------------------------------------------------------|
A|-------------0000--------------0000--------------0000--------------0000----|
D|222222222222------222222222222------222222222222------222222222222---------|

G|---------------------------------------------------------------------------|
D|---------------------------------------------------------------------------|
A|444444444444-0000-444444444444-0000---------------0000---------------0000--|
D|------------------------------------2222222222222------2222222222222-------|

G|-----------------------------------------|
D|-----------------------------------------|
A|444444444444-0000-444444444444-4~----0~--|
D|-----------------------------------------|


 Verse x2
G|---------------------------------------------------------------------------|
D|---------------------------------------------------------------------------|
A|-------------0000--------------0000-4-444-4-4444-0000-4-444-4-4444-0000----|
D|2-222-2-2222------2-222-2-2222---------------------------------------------|

 Pause

 Chorus 
G|-----------------------------------------|
D|-----------------------------------------|
A|444444444-0000000000000000-22222222------|
D|-----------------------------------------|

G|-----------------------------------------|
D|-----------------------------------------|
A|444444444-0000000000000000-22222222------|
D|-----------------------------------------|

G|---------------------------------------------------------------------------|
D|---------------------------------------------------------------------------|
A|00000000-222222222-33333333-44444444-000000000000000000-2222222222222222---|
D|---------------------------------------------------------------------------|

 Verse x2

 Pause

 Chorus

 Bridge x6
G|-----------------------------------------|
D|-----------------------------------------|
A|444444444-0000000000000000-22222222------|
D|-----------------------------------------|

G|------------------------------------------------------|
D|------------------------------------------------------|
A|0-0-0-0-2-2-2-2-3-3-3-3-4-4-4-4-0-0-0-0-0-0-0-0-0-2~--|
D|------------------------------------------------------|

 Chorus

 Outro x2
G|--------------------------------------|
D|--------------------------------------|
A|-------------0000--------------0000---|
D|2-222-2-2222------2-222-2-2222--------|

G|--------|
D|--------|
A|--------|
D|2~------|
            
Submit corrections

comments powered by Disqus
↑ Back to top | Circa Survive Bass for Dyed In The Wool. Lyrics for acoustic guitar and electric guitar. Tablatures and chords are parodies/interpretations of the original songs. You may use it for private study, scholarship, research or language learning purposes only