>
 >
Close Your Eyes To See

Close Your Eyes To See Guitar Tabs

Circa Survive - Close Your Eyes To See chords, tabs, tablatures, lyrics

Guitar lessons | Add/correct | Request | Top 50 tabs Artists:  A B C D E F G H I J K L M N O P Q R S T U V W X Y Z 0-9

Close Your Eyes To See Guitar Tabs – Circa Survive

CD, Sheet music, Poster

Do you like Close Your Eyes To See? Share with your friends now
Tabs
-------------------------------------------------------------------------------
                    Circa Survive - Close Your Eyes To See
-------------------------------------------------------------------------------
Tuning: D# G# C# F# A# D#

Not completely accurate, but decent enough.



Guitar 1 (Right Speaker)

Intro - Distortion
|---------------------------------------|     |-------|
|---------------------------------------|     |-------| 
|----------------------11----11----7----|x4   |-9~~~~-| 
|---5---5---5-----5/12----12----12---9--|     |-------|
|-7---7---7---7-7-----------------------|     |-------|
|---------------------------------------|     |-------|

Verse - Electric Clean
|-------10------------------------|
|---8------8----------13------12--|
|-9---9------9-----11-------9-----|x4
|---------------12-------10-------|
|---------------------------------|
|---------------------------------|

Pre-Chorus - Distortion
|--------------------------------|
|---------------------7-------7--|
|-------7------------------------|x4
|-7h9p7---7h9p7-7h9p7---7h9p7----|
|--------------------------------|
|--------------------------------|

Chorus - Distortion
|--------------------------------|     |--------------------------------------|
|--------------------------------|     |--------------------------------------|
|---------------------11---------|x2   |----------------16-------16-------16--|
|-9h10-9h10p9----9-------9----9--|     |-12h14-12h14p12----12-14----12-14-----|
|-------------12---12------12----|     |--------------------------------------|
|--------------------------------|     |--------------------------------------|

First Ending                           Second Ending 
|-----------------------------------|  |----------------------------|
|-------------------------15--------|  |----------------------------|
|-12h14-12h14p12----12-------12-----|  |-12h14-12h14p12-------------|
|----------------16----16-------16--|  |----------------16~~~~-17\--|
|-----------------------------------|  |----------------------------|
|-----------------------------------|  |----------------------------|

Verse

Pre-Chorus

Chorus

Bridge - Distortion
(Tremolo pick)
|-----------------------------------------------------------------------------------|
|-5----7----8----10----5----7----8----12----5----7----8----3----5----7----8----10---|
|-----------------------------------------------------------------------------------|
|-----------------------------------------------------------------------------------|
|-----------------------------------------------------------------------------------|
|-----------------------------------------------------------------------------------|

|--------------------------------|
|---------------------7-------7--|
|-------7------------------------|x10
|-7h9p7---7h9p7-7h9p7---7h9p7----|
|--------------------------------|
|--------------------------------|

Last Chorus - Distortion
|--------------------------------|     |--------------------------------------|
|--------------------------------|     |--------------------------------------|
|---------------------11---------|x2   |----------------16-------16-------16--|
|-9h10-9h10p9----9-------9----9--|     |-12h14-12h14p12----12-14----12-14-----|
|-------------12---12------12----|     |--------------------------------------|
|--------------------------------|     |--------------------------------------|

First and Second Ending                Third Ending 
|-----------------------------------|  |----------------------------|
|-------------------------15--------|  |----------------------------|
|-12h14-12h14p12----12-------12-----|  |-12h14-12h14p12-------------|
|----------------16----16-------16--|  |----------------16~~~~-17\--|
|-----------------------------------|  |----------------------------|
|-----------------------------------|  |----------------------------|





Guitar 2 (Left Speaker)

Intro - Distortion
|-----------------|     |---------|
|-----------------|     |---------|
|-----------------|x4   |---------|
|-----------------|     |---------|
|-5-7/------------|     |-5-7~~~--|
|------x-x-0-3-5--|     |---------|

Verse - Distortion+Delay
|-7--------------------------7--------------------|
|-8-----10-----8------10-----8-----10-----8~~~~~--|
|-9-----11-----9------11-----9-----11-----9~~~~~--|
|-------12-----10-----12-----------12-----10~~~~--|
|-------------------------------------------------|
|-------------------------------------------------|

Pre-Chorus - Distortion
|----------------------------------------------|     |-------------------------------|
|----------15~-------13~-------------12--------|     |-------------------------/17~--|
|----12--------12--------12----12-------12-----|x3   |-------------------------------|
|-14----12--------14--------14----14-------14--|     |-14-12-14-12-14-12-14-12-------|
|----------------------------------------------|     |-------------------------------|
|----------------------------------------------|     |-------------------------------|

Chorus - Distortion+Delay
|---------------------------------------------------------|
|------7~-7h8p7--------------7~-7h8p7-----10-----8---8-7--|
|---------------7h9-------------------7h9----9-7---7------|
|-2/9~--------------7-9~-2/9------------------------------|
|---------------------------------------------------------|
|---------------------------------------------------------|

|----------------------7~~---7~--------7~--------7~---7~-----------|
|-----7~-7h8p7--------------------8~--------8~-------------10~-9\--|
|--------------7h9---------9----9----9----9----9----9----9---------|
|-2/9--------------7-9---------------------------------------------|
|------------------------------------------------------------------|
|------------------------------------------------------------------|

"Post-Chorus" (Mute all notes)
|--------------------------------------------|
|-17-17-17-17--------------------------------|
|-------------16-16-16-16--------------------|
|-------------------------17-17-17-17-16-16--|
|--------------------------------------------|
|--------------------------------------------|

Verse

Pre-Chorus

Chorus

Bridge - Distortion+Delay
|-15---14-------------|     
|-----------15---17---|     
|---------------------|x4   
|---------------------|     
|---------------------|     
|---------------------|     

(Tremolo pick)
|-----------------------------|     |-------------10~~~--|
|-12----10----8----7----5--7--|     |-12----10-----------|
|-----------------------------|x2   |--------------------|
|-----------------------------|     |--------------------|
|-----------------------------|     |--------------------|
|-----------------------------|     |--------------------|

Last Chorus - Distortion+Delay
|---------------------------------------------------------|
|------7~-7h8p7--------------7~-7h8p7-----10-----8---8-7--|
|---------------7h9-------------------7h9----9-7---7------|x2
|-2/9~--------------7-9~-2/9------------------------------|
|---------------------------------------------------------|
|---------------------------------------------------------|

|----------------------7~~---7~--------7~--------7~---7~-----------|
|-----7~-7h8p7--------------------8~--------8~-------------10~-9\--|
|--------------7h9---------9----9----9----9----9----9----9---------|
|-2/9--------------7-9---------------------------------------------|
|------------------------------------------------------------------|
|------------------------------------------------------------------|



 /   slide
 h   hammer-on
 p   pull-off
 ~   let ring
 x   Mute note





Comments


Popular Circa Survive tabs & chords
Great Golden Baby Bass Tabs
Imaginary Enemy 2 Bass Tabs
The Difference Between Medicine And Poison Is In The Dose Intro Bass Tabs
Dyed In The Wool 1 Chords
Get Out Chords
Spirit Of The Stairwell 2 Chords
Backmask Intro Tabs
Great Golden Baby 2 Tabs
Wish Resign Tabs
Devil Song Ukulele


Song lyrics



↑ Back to top | Tablatures and chords are parodies/interpretations of the original songs. You may use it for private study, scholarship, research or language learning purposes only
© 2014 AZChords.com Contact us | Privacy policy | DMCA | Add/correct tabs | Request tabs | Top 50 tabs