» » »

Circa Survive, Always Getting What You Want Bass tabs (ver.1)

Artists:  A B C D E F G H I J K L M N O P Q R S T U V W X Y Z # 

Always Getting What You Want Bass tabs (ver.1)

Circa Survive Tabs
 Rating:
4/5 (4 votes)
Always Getting What You Want lessons Tabs too difficult? Try these video lessons and learn fast
1
                ALWAYS GETTING WHAT YOU WANT (Bassline)
As recorded by Circa Survive
(From the 2005 Album JUTURNA)

	

Words and Music by Circa Survive
Arranged by Circa Survive

Gtr I (Eb Ab Db Gb) - 'Untitled'

 Intro
  Q=154
 3/4
  Gtr I
  Wx8
|--------|
|--------|
|--------|
|--------|


   Verse
    E E E E E E   E E E E E E   E E E E E E   E E E Q.    8x
||--------------|-------------|-------------|-------------||
||o-------------|-------------|-------------|------------o||
||o-0-2-2-2-2-2-|-0-2-2-2-2-2-|-0-2-2-2-2-2-|-2-0--------o||
||--------------|-------------|-------------|-----2-0-----||


 Breakdown
  +H.        +H.        +H.        +H.
|----------|----------|----------|--------|
|----------|----------|----------|--------|
|----------|----------|----------|--------|
|-(0)------|-(0)------|-(0)------|-(0)----|


    E E E E E E   E E E E E E   E E E E E E   E E E E E E
||--------------|-------------|-------------|-------------|
||o-------------|-------------|-------------|-------------|
||o-2-2-2-2-2-2-|-2-2-2-2-2-2-|-2-2-2-2-2-2-|-2-2-2-2-2-2-|
||--------------|-------------|-------------|-------------|


  E E E E E E   E E E E E E   E E E E E E   E E E E E E
|-------------|-------------|-------------|--------------||
|-------------|-------------|-------------|-------------o||
|-------------|-------------|-------------|-------------o||
|-2-2-2-2-2-2-|-2-2-2-2-2-2-|-2-2-2-2-2-2-|-2s5-5-5-5-5--||


   Chorus
    E Q  Q  E   E Q  Q  E   Q.   Q  E   Q  Q  Q   3x
||------------|-----------|-----------|-----------||
||o-----------|-----------|-----------|----------o||
||o-----------|-----------|-----------|----------o||
||--5s7--7--7-|-7-7--7--7-|-7----7--7-|-5--5--5---||


  E Q  Q  E   E Q  Q  E   Q.   Q  E   Q  Q  Q
|-----------|-----------|-----------|-----------|
|-----------|-----------|-----------|-----------|
|-----------|-----------|-----------|-----------|
|-5s7--7--7-|-7-7--7--7-|-7----7--7-|-5--5--5\--|


   Verse
    E E E E E E   E E E E E E   E E E E E E   E E E Q.    3x
||--------------|-------------|-------------|-------------||
||o-------------|-------------|-------------|------------o||
||o-0-2-2-2-2-2-|-0-2-2-2-2-2-|-0-2-2-2-2-2-|-2-0--------o||
||--------------|-------------|-------------|-----2-0-----||


  E E E E E E   E E E E E E   E E E E E E   H.
|-------------|-------------|-------------|-------|
|-------------|-------------|-------------|-------|
|-0-2-2-2-2-2-|-0-2-2-2-2-2-|-0-2-2-2-2-2-|-0-----|
|-------------|-------------|-------------|-------|


    E E E E E E   E E E E E E   E E E E E E   E E E Q.
||--------------|-------------|-------------|-------------||
||o-------------|-------------|-------------|------------o||
||o-0-2-2-2-2-2-|-0-2-2-2-2-2-|-0-2-2-2-2-2-|-2-0--------o||
||--------------|-------------|-------------|-----2-0-----||


  E E E E E E   E E E E E E   E E E E E E   E E E E E E
|-------------|-------------|-------------|-------------|
|-------------|-------------|-------------|-------------|
|-0-2-0-----0-|-0-2-0-----0-|-0-2-0-----0-|-0-2-0-----0-|
|-------0-2---|-------0-2---|-------0-2---|-------0-2---|


  E E E E E E   E E E E E E   E E E E E E   Q  Q  Q
|-------------|-------------|-------------|----------|
|-------------|-------------|-------------|----------|
|-0-2-0-----0-|-0-2-0-----0-|-0-2-0-----0-|-0--0--0--|
|-------0-2---|-------0-2---|-------0-2---|----------|


   Chorus
    E Q  Q  E   E Q  Q  E   Q.   Q  E   Q  Q  Q   4x
||------------|-----------|-----------|-----------||
||o-----------|-----------|-----------|----------o||
||o-----------|-----------|-----------|----------o||
||--5s7--7--7-|-7-7--7--7-|-7----7--7-|-5--5--5---||


    Q.   Q  E   Q.   Q  E   Q.   Q  E   Q  Q  Q
||------------|-----------|-----------|-----------||
||o-----------|-----------|-----------|----------o||
||o-----------|-----------|-----------|----------o||
||--3----3--3-|-3----3--3-|-3----3--3-|-5--5--5---||


 Interlude
  E E E E E E   E E E E E E   E E E E E E   E E E E E E
|-------------|-------------|-------------|-------------|
|-------------|-------------|-------------|-------------|
|-------------|-------------|-------------|-------------|
|-7-7-7-7-7-7-|-7-7-7-7-7-7-|-7-7-7-7-7-7-|-7-7-7-7-7-7-|


  E E E E E E   E E E E E E   E E E E E E   E E E E E E
|-------------|-------------|-------------|-------------|
|-------------|-------------|-------------|-------------|
|-------------|-------------|-------------|-------------|
|-2-2-2-2-2-2-|-2-2-2-2-2-2-|-2-2-2-2-2-2-|-2-2-2-2-2-2-|


  E E E E E E   E E E E E E   E E E E E E   E E E E E E
|-------------|-------------|-------------|-------------|
|-------------|-------------|-------------|-------------|
|-------------|-------------|-------------|-------------|
|-7-7-7-7-7-7-|-7-7-7-7-7-7-|-7-7-7-7-7-7-|-7-7-7-7-7-7-|


  E E E E E E   E E E E E E   E E E E E E   Q  Q  Q    Q  Q  Q
|-------------|-------------|-------------|----------|----------|
|-------------|-------------|-------------|----------|----------|
|-------------|-------------|-------------|----------|----------|
|-2-2-2-2-2-2-|-2-2-2-2-2-2-|-2-2-2-2-2-2-|-5--5--5--|-5--5--5--|


   Out-Chorus
    E Q  Q  E   E Q  Q  E   Q.   Q  E   Q  Q  Q   4x
||------------|-----------|-----------|-----------||
||o-----------|-----------|-----------|----------o||
||o-----------|-----------|-----------|----------o||
||--5s7--7--7-|-7-7--7--7-|-7----7--7-|-5--5--5---||


    Q.   Q  E   Q.   Q  E   Q.   Q  E   Q  Q  Q
||------------|-----------|-----------|-----------||
||o-----------|-----------|-----------|----------o||
||o-----------|-----------|-----------|----------o||
||--3----3--3-|-3----3--3-|-3----3--3-|-5--5--5---||


    E Q  Q  E   E Q  Q  E   Q.   Q  E   Q  Q  Q   4x
||------------|-----------|-----------|-----------||
||o-----------|-----------|-----------|----------o||
||o-----------|-----------|-----------|----------o||
||--5s7--7--7-|-7-7--7--7-|-7----7--7-|-5--5--5---||


  >
  H.        +H.        +H.        +H.
|---------|----------|----------|--------*|
|---------|----------|----------|--------*|
|---------|----------|----------|--------*|
|-3-------|-(3)------|-(3)------|-(3)----*|



Duration Legend
---------------
W - whole; H - half; Q - quarter; E - 8th; S - 16th; T - 32nd; X - 64th; a - acciaccatura
+ - note tied to previous; . - note dotted; .. - note double dotted
Uncapitalized letters represent notes that are staccato (1/2 duration)
Irregular groupings are notated above the duration line
Duration letters will always appear directly above the note/fret number it represents the
duration for.  Duration letters with no fret number below them represent rests.  Multi-
bar rests are notated in the form Wxn, where n is the number of bars to rest for.  Low
melody durations appear below the staff

Tablature Legend
----------------
 h   - hammer-on
 p   - pull-off
 b   - bend
 pb  - pre-bend
 r   - bend release (if no number after the r, then release immediately)
 /\  - slide into or out of (from/to "nowhere")
 s   - legato slide
 S   - shift slide
 - natural harmonic
[n]  - artificial harmonic
n(n) - tapped harmonic
 ~   - vibrato
 tr  - trill
 T   - tap
 TP  - trem. picking
 PM  - palm muting
\n/  - tremolo bar dip; n = amount to dip
 \n  - tremolo bar down
 n/  - tremolo bar up
/n\  - tremolo bar inverted dip
 =   - hold bend; also acts as connecting device for hammers/pulls
 <> - volume swell (louder/softer)
 x   - on rhythm slash represents muted slash
 o   - on rhythm slash represents single note slash

Misc Legend
-----------
 |  - bar
||  - double bar
||o - repeat start
o|| - repeat end
*|  - double bar (ending)
 :  - bar (freetime)
 $  - Segno
 &  - Coda
Tempo markers -  = BPM(8/16=s8/s16), where s8 = swing 8ths, s16 = swing 16ths
            
Submit corrections

comments powered by Disqus
↑ Back to top | Circa Survive Bass for Always Getting What You Want. Lyrics for acoustic guitar and electric guitar. 1 Tablatures and chords are parodies/interpretations of the original songs. You may use it for private study, scholarship, research or language learning purposes only