» » »

Cinderella, Heartbreak Station Chords (ver.1)

Artists:  A B C D E F G H I J K L M N O P Q R S T U V W X Y Z # 

Heartbreak Station Chords (ver.1)

Cinderella Tabs
 Rating:
4/5 (7 votes)
Heartbreak Station lessons Tabs too difficult? Try these video lessons and learn fast
                (Intro)

E||---------------3-----------|--------------3-----------|
B||---------------------------|--------------------------|
G||*--------0-----------------|--------0-----------------|
D||*-----0-----0-----0--------|-----0-----0-----0--------|
A||---------------------0--2--|--3-----------------------|
E||---3-----------------------|--------------------0--3--|

 *
--------5-----0-----5-----|-----------------------------||
-----3-----3-----3-----3--|-----------------------------||
--------------------2-----|--------0--------0-----------||
--------------------------|-----0--------0----------0---||
--------------------------|--3--------2--------0h-2-----||
--2-----------------------|-----------------------------||

G           D/F# *
Waiting at the station
Em            D
Tears filling up my eyes
C             D
Sometimes the pain you hide
G            D
Burns like a fire inside

G           D/F# *
Look out my window
Em             D
Sometimes it's hard to see
C              D
The things you want in life
G              D      Dsus4 D
Come and go so easily

(Chorus)

             Em        C          G             D
She took the last train out of my heart ooo, ooo
             Em 
She took the last train
C                    G                D
And now I think I'll make a brand new start
             Em *                 C  
She took the last train out of my heart

(Intro)

G           D/F# *
Watching the days go by
Em                 D
Thinking 'bout the plans we made
C             D
The days turn into years
G              D
Funny how they fade away

G           D/F# *
Sometimes I think of those days
Em               D
Sometimes I just hide away
C               D
Waiting on that 9:20 train
G            D      Dsus4 D
Waiting on a memory

             Em        C          G            D
She took the last train out of my heart ooo, ooo
             Em 
She took the last train
C                     G              D
And now I think I'll make a brand new start
             Em *         C               D Dsus4 D
She took the last train out of my heart

(Bridge)

   Bm                          G
My lady's on the fly and she's never coming back
   D                          A                 
My love is like a steam train rolling down the tracks yea, yea

Slide Solo (Chords like the 1st Chorus)

Intro (modified a bit, you can hear what to do)

             Em       C           G             D
She took the last train out of my heart ooo, ooo
             Em         C
She took the last train
                     G                D
And now I think I'll make a brand new start
             Em       C           D    Dsus4 D
She took the last train out of my heart

             Em                  
She took the last train 
             C        G                D
She took the last train ooo, out of my heart
             Em                       C         G
She took the last train, She took the last train
                     D
And now I think I'll make a new start
Em *       C   
Last train out of my heart

Intro, slow at the end.


--------------------------------------------------

* Alternate measure can be in intro, use later as well
--------------------------|
--------------------------|
--------2-----------2-----|
--------------0-----------|
-----0-----0-----0--------|
--2-----------------------|


D/F# *

|--2--------3s--5s--3----|
|--3--------3s--5S--3----|
|--2--------2------------|
|-----------0------------|
|------------------------|
|--2-----2---------------|


Em *

EM with a hammer-on the Low E string fret 2

Em 0h2  then C chord.

This song has a lot of walk ups and downs between chords 
(I don't know the exact terminology) 
but this version will do the job for one geetar. 
You can tell the chords are broken up at times 
between the root notes of the chord and the other strings.
            
Submit corrections

comments powered by Disqus
↑ Back to top | Cinderella Chords for Heartbreak Station. Lyrics for acoustic guitar and electric guitar. Tablatures and chords are parodies/interpretations of the original songs. You may use it for private study, scholarship, research or language learning purposes only