>
 >
Coming Home

Coming Home Guitar Tabs

Cinderella - Coming Home chords, tabs, tablatures, lyrics

Guitar lessons | Add/correct | Request | Top 50 tabs Artists:  A B C D E F G H I J K L M N O P Q R S T U V W X Y Z 0-9

Coming Home Guitar Tabs – Cinderella

CD, Sheet music, Poster

Do you like Coming Home? Share with your friends now
ChordsChords v2TabsUkulele
                                  Coming Home


                                                                      Cinderella
Rhythm Git. I

E||--------------------------|-------------------------|
B||--------------------------|--------3-3-3--3-3-3--3--|
G||--------0-----------0-----|--------0-0-0--0-0-0--0--|
D||-----------------0--------|--------0-0-0--0-0-0--0--|
A||-----2--------2-----------|--------3-3-3--2-2-2-----|
E||--3--------3-----------3--|-------------------------|

--------------------------|-------------------------|-----------------------2--|
--------------------------|--------3-3-3--3-3-3--3--|-----------------------3--|
--------0-----------0-----|--------0-0-0--0-0-0--0--|--------0-----------0--2--|
-----------------0--------|--------0-0-0--0-0-0--0--|-----------------0-----0--|
-----2--------2-----------|--------3-3-3--2-2-2-----|-----2--------2-----------|
--3--------3-----------3--|-------------------------|--3--------3--------------|

--------------------------|--3----3--3----3--3--3--|--3----3--3----3--3----|
--------3-3-3--3-3-3--3-3-|--3----3--3----3--3--3--|--3----3--3----3--3----|
--------0-0-0--0-0-0--0-0-|--0----0--0----0--0--0--|--0----0--0----0--0----|
--------0-0-0--0-0-0--0-0-|--0----0--0----0--0--0--|--0----0--0----0--0----|
--------3-3-3--2-2-2------|--2----2--2----2--2--2--|--2----2--2----2--2----|
--------------------------|--3----3--3----3--3--3--|--3----3--3----3--3----|

---------------------|---------------------|--------------------------|
--------3------------|---------------------|---------------------3----|
-----2---------------|--------0------------|--------0----------0------|
--0------------------|-----0---------------|-----0-----------0--------|
---------------------|--3------------------|---------------3----------|
---------------------|---------------------|--3-----------------------|

---------------------|----------------------|----------------------|
---------------------|-----------0----------|-----------3----------|
--------0------------|----------------------|--------0-------------|
-----0---------------|--------2-------------|-----0----------------|
---------------------|-----2----------------|--3-------------------|
--3------------------|--0-------------------|----------------------|

----------------------|---------------------|-----------------------|
-----------------3----|---------------------|--1----1--1----1--1----|
--------0--------0----|--------0------------|--0----0--0----0--0----|
-----0-----------0----|-----0---------------|--2----2--2----2--2----|
-----------------3----|---------------------|--3----3--3----3--3----|
--3-------------------|--3------------------|-----------------------|

--3----3--3----3--3----|-----------------------|-----------------------|
--3----3--3----3--3----|--0----0--0----0--0----|--1----1--1----1--1----|
--0----0--0----0--0----|--0----0--0----0--0----|--0----0--0----0--0----|
--0----0--0----0--0----|--2----2--2----2--2----|--2----2--2----2--2----|
--2----2--2----2--2----|--2----2--2----2--2----|--3----3--3----3--3----|
--3----3--3----3--3----|--0----0--0----0--0----|-----------------------|

--------------------|------------------------|--------------------------|
--1--------------3--|----3--1-----1--1----1--|--------------------------|
--0--------------4--|----2--0-----0--2----0--|--------0-----------0-----|
--2-----------------|----------2-------------|-----------------0--------|
--3-----------------|------------------------|-----2--------2-----------|
--------------------|------------------------|--3--------3-----------3--|

-------------------------|--------------------------|-------------------------|
--------3-3-3--3-3-3--3--|--------------------------|--------3-3-3--3-3-3--3--|
--------0-0-0--0-0-0--0--|--------0-----------0-----|--------0-0-0--0-0-0--0--|
--------0-0-0--0-0-0--0--|-----------------0--------|--------0-0-0--0-0-0--0--|
--------3-3-3--2-2-2-----|-----2--------2-----------|--------3-3-3--2-2-2-----|
-------------------------|--3--------3-----------3--|-------------------------|


                                                                  Gsus4
----------2----2--2----|-----------------------|--3----3--3----3--3----|
--3----3--3----3--3----|--1----1--1----1--1----|--3----3--3----3--1----|
--2----2--2----2--2----|--0----0--0----0--0----|--0----0--0----0--0----|
--0----0--0----0--0----|--2----2--2----2--2----|--0----0--0----0--0----|
-----------------------|--3----3--3----3--3----|--2----2--2----2-------|
-----------------------|-----------------------|--3----3--3----3-------|

--3----3--3------3----|-----------------------|-----------------------|
--3----3--3------3----|--0----0--0----0--0----|--1----1--1----1--1----|
--0----0--0------0----|--0----0--0----0--0----|--0----0--0----0--0----|
--0----0--0------0----|--2----2--2----2--2----|--2----2--2----2--2----|
--2----2--2------2----|--2----2--2----2--2----|--3----3--3----3--3----|
--3----3--3------3----|--0----0--0----0--0----|-----------------------|


                  Gsus4
--3----3--3----3--3----|--3----3--3------3----|-----------------------|
--3----3--3----3--1----|--3----3--3------3----|--1----1--1----1--1----|
--0----0--0----0--0----|--0----0--0------0----|--0----0--0----0--0----|
--0----0--0----0--0----|--0----0--0------0----|--2----2--2----2--2----|
--2----2--2----2-------|--2----2--2------2----|--3----3--3----3--3----|
--3----3--3----3-------|--3----3--3------3----|-----------------------|

--3----3--3----3--3----|-----------------------|-----------------------|
--3----3--3----3--3----|--0----0--0----0--0----|--1----1--1----1--1----|
--0----0--0----0--0----|--0----0--0----0--0----|--0----0--0----0--0----|
--0----0--0----0--0----|--2----2--2----2--2----|--2----2--2----2--2----|
--2----2--2----2--2----|--2----2--2----2--2----|--3----3--3----3--3----|
--3----3--3----3--3----|--0----0--0----0--0----|-----------------------|


                                                                Gsus4
--------------------|------------------------|--3----3--3----3--3----|
--1--------------3--|----3--1-----1--1----1--|--3----3--3----3--1----|
--0--------------4--|----2--0-----0--2----0--|--0----0--0----0--0----|
--2-----------------|----------2-------------|--0----0--0----0--0----|
--3-----------------|------------------------|--2----2--2----2-------|
--------------------|------------------------|--3----3--3----3-------|


                  Gsus4
--3----3--3----3--3----|------------------------|------------------------|
--3----3--3----3--1----|--0----0--0----0--0--0--|--1----1--1----1--1--0--|
--0----0--0----0--0----|--0----0--0----0--0--0--|--0----0--0----0--0--0--|
--0----0--0----0--0----|--2----2--2----2--2--2--|--2----2--2----2--2--0--|
--2----2--2----2-------|--2----2--2----2--2--2--|--3----3--3----3--3-----|
--3----3--3----3-------|--0----0--0----0--0--0--|------------------------|


                  Gsus4
--3----3--3----3--3----|--3----3--3----3--------|--0----0--0----0--0----|
--3----3--3----3--1----|--3----3--3----3--3--3--|--1----1--1----1--1----|
--0----0--0----0--0----|--0----0--0----0--0--0--|--2----2--2----2--2----|
--0----0--0----0--0----|--0----0--0----0--0--0--|--2----2--2----2--2----|
--2----2--2----2-------|--2----2--2----2--2--2--|--0----0--0----0--0----|
--3----3--3----3-------|--3----3--3----3--3--3--|-----------------------|


                                   D5                       D5
------------------------|--2----2--5----5--2----|--2--2--2--5----5--2----|
--1----1--1----1--1--1--|--3----3--3----3--3----|--3--3--3--3----3--3----|
--0----0--0----0--0--0--|--2----2--2----2--2----|--2--2--2--2----2--2----|
--2----2--2----2--2--2--|--0----0--0----0--0----|--0--0--0--0----0--0----|
--3----3--3----3--3--3--|-----------------------|------------------------|
------------------------|-----------------------|------------------------|

--1----1--1----1--1--1--|--3----3--3----3--3--3--|--1----1--1----1--1--1--|
--3----3--3----3--3--3--|--3----3--3----3--3--3--|--3----3--3----3--3--3--|
--0----0--0----0--0--0--|--0----0--0----0--0--0--|--0----0--0----0--0--0--|
------------------------|------------------------|------------------------|
------------------------|------------------------|------------------------|
------------------------|------------------------|------------------------|


                           Csus2                    F
--3----3--3----3--3--3--|------------------------|------------------------|
--3----3--3----3--3--3--|--3----3--3----3--3--3--|--1----1--1----1--1--1--|
--0----0--0----0--0--0--|--0----0--0----0--0--0--|--2----2--2----2--2--2--|
------------------------|--0----0--0----0--0--0--|--3----3--3----3--3--3--|
------------------------|--2----2--2----2--2--2--|--3----3--3----3--3--3--|
------------------------|------------------------|------------------------|


                     Gsus
---------------------3--|------------------------|--1----1--1----1--1--1--|
--3----3--3----3--3--1--|--3----3--3----3--3--3--|--3----3--3----3--3--3--|
--0----0--0----0--0--0--|--0----0--0----0--0--0--|--0----0--0----0--0--0--|
--0----0--0----0--0--0--|--0----0--0----0--0--0--|------------------------|
--2----2--2----2--2-----|--2----2--2----2--2--2--|------------------------|
--3----3--3----3--3-----|--3----3--3----3--3--3--|------------------------|

--3----3--3----3--3--3--|--1----1--1----1--1--1--|--3----3--3----3--3--3--|
--3----3--3----3--3--3--|--3----3--3----3--3--3--|--3----3--3----3--3--3--|
--0----0--0----0--0--0--|--0----0--0----0--0--0--|--0----0--0----0--0--0--|
------------------------|------------------------|------------------------|
------------------------|------------------------|------------------------|
------------------------|------------------------|------------------------|

--1----1--1----1--1--1--|--3----3--3----3--3--3--|--1----1--1----1--1--1--|
--3----3--3----3--3--3--|--3----3--3----3--3--3--|--3----3--3----3--3--3--|
--0----0--0----0--0--0--|--0----0--0----0--0--0--|--0----0--0----0--0--0--|
------------------------|------------------------|------------------------|
------------------------|------------------------|------------------------|
------------------------|------------------------|------------------------|

--3----3--3----3--3--3--|---------------------|---------------------|
--3----3--3----3--3--3--|--------3------------|---------------------|
--0----0--0----0--0--0--|-----2---------------|--------0------------|
------------------------|--0------------------|-----0---------------|
------------------------|---------------------|--3------------------|
------------------------|---------------------|---------------------|

--------------------------|---------------------|----------------------|
---------------------3----|---------------------|-----------0----------|
--------0----------0------|--------0------------|----------------------|
-----0-----------0--------|-----0---------------|--------2-------------|
---------------3----------|---------------------|-----2----------------|
--3-----------------------|--3------------------|--0-------------------|

----------------------|----------------------|---------------------|
-----------3----------|-----------------3----|---------------------|
--------0-------------|--------0--------0----|--------0------------|
-----0----------------|-----0-----------0----|-----0---------------|
--3-------------------|-----------------3----|---------------------|
----------------------|--3-------------------|--3------------------|

-----------------------|--3----3--3----3--3----|-----------------------|
--1----1--1----1--1----|--3----3--3----3--3----|--0----0--0----0--0----|
--0----0--0----0--0----|--0----0--0----0--0----|--0----0--0----0--0----|
--2----2--2----2--2----|--0----0--0----0--0----|--2----2--2----2--2----|
--3----3--3----3--3----|--2----2--2----2--2----|--2----2--2----2--2----|
-----------------------|--3----3--3----3--3----|--0----0--0----0--0----|

-----------------------|--------------------|------------------------|
--1----1--1----1--1----|--1--------------3--|----3--1-----1--1----1--|
--0----0--0----0--0----|--0--------------4--|----2--0-----0--2----0--|
--2----2--2----2--2----|--2-----------------|----------2-------------|
--3----3--3----3--3----|--3-----------------|------------------------|
-----------------------|--------------------|------------------------|

--------------------------|-------------------------|--------------------------|
--------------------------|--------3-3-3--3-3-3--3--|--------------------------|
--------0-----------0-----|--------0-0-0--0-0-0--0--|--------0-----------0-----|
-----------------0--------|--------0-0-0--0-0-0--0--|-----------------0--------|
-----2--------2-----------|--------3-3-3--2-2-2-----|-----2--------2-----------|
--3--------3-----------3--|-------------------------|--3--------3-----------3--|

-------------------------|-----------------------|-----------------------|
--------3-3-3--3-3-3--3--|-----------------------|-----------------------|
--------0-0-0--0-0-0--0--|-------0-------0-------|-------0-------0-------|
--------0-0-0--0-0-0--0--|--0-------0-------0----|--0-------0-------0----|
--------3-3-3--2-2-2-----|-----------------------|-----------------------|
-------------------------|-----------------------|-----------------------|

-----------------------|-----------------------|-----------------------|
-----------------------|-----------------------|-----------------------|
-------0-------0-------|-------0-------0-------|-------0-------0-------|
--0-------0-------0----|--0-------0-------0----|--0-------0-------0----|
-----------------------|-----------------------|-----------------------|
-----------------------|-----------------------|-----------------------|

-----------------------|-----------------------|-----------------------|
-----------------------|-----------------------|-----------------------|
-------0-------0-------|-------0-------0-------|-------0-------0-------|
--0-------0-------0----|--0-------0-------0----|--0-------0-------0----|
-----------------------|-----------------------|-----------------------|
-----------------------|-----------------------|-----------------------|

-----------------------|-----------------------|-----------------------|
-----------------------|-----------------------|-----------------------|
-------0-------0-------|-------0-------0-------|-------0-------0-------|
--0-------0-------0----|--0-------0-------0----|--0-------0-------0----|
-----------------------|-----------------------|-----------------------|
-----------------------|-----------------------|-----------------------|

-----------------------|-----------------------|-----------------------|
-----------------------|-----------------------|-----------------------|
-------0-------0-------|-------0-------0-------|-------0-------0-------|
--0-------0-------0----|--0-------0-------0----|--0-------0-------0----|
-----------------------|-----------------------|-----------------------|
-----------------------|-----------------------|-----------------------|

-----------------------|-----------------------|-----------------------|
-----------------------|-----------------------|-----------------------|
-------0-------0-------|-------0-------0-------|-------0-------0-------|
--0-------0-------0----|--0-------0-------0----|--0-------0-------0----|
-----------------------|-----------------------|-----------------------|
-----------------------|-----------------------|-----------------------|

-----------------------|-----------------------|-----------------------|
-----------------------|-----------------------|-----------------------|
-------0-------0-------|-------0-------0-------|-------0-------0-------|
--0-------0-------0----|--0-------0-------0----|--0-------0-------0----|
-----------------------|-----------------------|-----------------------|
-----------------------|-----------------------|-----------------------|

-----------------------|-----------------------|-----------------------|
-----------------------|-----------------------|-----------------------|
-------0-------0-------|-------0-------0-------|-------0-------0-------|
--0-------0-------0----|--0-------0-------0----|--0-------0-------0----|
-----------------------|-----------------------|-----------------------|
-----------------------|-----------------------|-----------------------|

-----------------------|-----------------------|-----------------------|
-----------------------|-----------------------|-----------------------|
-------0-------0-------|-------0-------0-------|-------0-------0-------|
--0-------0-------0----|--0-------0-------0----|--0-------0-------0----|
-----------------------|-----------------------|-----------------------|
-----------------------|-----------------------|-----------------------|

-----------------------|-----------------------|-----------------------|
-----------------------|-----------------------|-----------------------|
-------0-------0-------|-------0-------0-------|-------0-------0-------|
--0-------0-------0----|--0-------0-------0----|--0-------0-------0----|
-----------------------|-----------------------|-----------------------|
-----------------------|-----------------------|-----------------------|

-----------------------|-----------------------|-----------------------|
-----------------------|-----------------------|-----------------------|
-------0-------0-------|-------0-------0-------|-------0-------0-------|
--0-------0-------0----|--0-------0-------0----|--0-------0-------0----|
-----------------------|-----------------------|-----------------------|
-----------------------|-----------------------|-----------------------|

-----------------------|-----------------------|-----------------------|
-----------------------|-----------------------|-----------------------|
-------0-------0-------|-------0-------0-------|-------0-------0-------|
--0-------0-------0----|--0-------0-------0----|--0-------0-------0----|
-----------------------|-----------------------|-----------------------|
-----------------------|-----------------------|-----------------------|

-----------------------|-----------------------|-----------------------|
-----------------------|-----------------------|-----------------------|
-------0-------0-------|-------0-------0-------|-------0-------0-------|
--0-------0-------0----|--0-------0-------0----|--0-------0-------0----|
-----------------------|-----------------------|-----------------------|
-----------------------|-----------------------|-----------------------|

-----------------------|-----------------------|-----------------------|
-----------------------|-----------------------|-----------------------|
-------0-------0-------|-------0-------0-------|-------0-------0-------|
--0-------0-------0----|--0-------0-------0----|--0-------0-------0----|
-----------------------|-----------------------|-----------------------|
-----------------------|-----------------------|-----------------------|

-----------------------|-----------------------|-----------------------|
-----------------------|-----------------------|-----------------------|
-------0-------0-------|-------0-------0-------|-------0-------0-------|
--0-------0-------0----|--0-------0-------0----|--0-------0-------0----|
-----------------------|-----------------------|-----------------------|
-----------------------|-----------------------|-----------------------|

-----------------------|-----------------------|-----------------------|
-----------------------|-----------------------|-----------------------|
-------0-------0-------|-------0-------0-------|-------0-------0-------|
--0-------0-------0----|--0-------0-------0----|--0-------0-------0----|
-----------------------|-----------------------|-----------------------|
-----------------------|-----------------------|-----------------------|

-----------------------|-----------------------|-----------------------|
-----------------------|-----------------------|-----------------------|
-------0-------0-------|-------0-------0-------|-------0-------0-------|
--0-------0-------0----|--0-------0-------0----|--0-------0-------0----|
-----------------------|-----------------------|-----------------------|
-----------------------|-----------------------|-----------------------|

-----------------------|-----------------------|-----------------------|
-----------------------|-----------------------|-----------------------|
-------0-------0-------|-------0-------0-------|-------0-------0-------|
--0-------0-------0----|--0-------0-------0----|--0-------0-------0----|
-----------------------|-----------------------|-----------------------|
-----------------------|-----------------------|-----------------------|

-----------------------|-----------------------|-----------------------||
-----------------------|-----------------------|-----------------------||
-------0-------0-------|-------0-------0-------|-------0-------0-------||
--0-------0-------0----|--0-------0-------0----|--0-------0-------0----||
-----------------------|-----------------------|-----------------------||
-----------------------|-----------------------|-----------------------||





Comments


Popular Cinderella tabs & chords
Nobody's Fool Bass Tabs
Coming Home 1 Chords
Back Home Again 1 Tabs
Comin Home Tabs
Heartbreak Station 1 Tabs
More Things Change Tabs
Nobody's Fool Tabs
Shake Me 2 Tabs
Winds Of Change 1 Tabs
One For Rock And Roll Ukulele


Song lyrics



↑ Back to top | Tablatures and chords are parodies/interpretations of the original songs. You may use it for private study, scholarship, research or language learning purposes only
© 2014 AZChords.com Contact us | Privacy policy | DMCA | Add/correct tabs | Request tabs | Top 50 tabs