>
 >
Roll Over Beethoven 1

Roll Over Beethoven 1 Guitar Tabs

Chuck Berry - Roll Over Beethoven 1 chords, tabs, tablatures, lyrics

Guitar lessons | Add/correct | Request | Top 50 tabs Artists:  A B C D E F G H I J K L M N O P Q R S T U V W X Y Z 0-9

Roll Over Beethoven 1 Guitar Tabs – Chuck Berry

CD, Sheet music, Poster

Do you like Roll Over Beethoven 1? Share with your friends now
Bass TabsChordsChords v2Chords v3Chords v4TabsTabs v2Ukulele
intro

e|---------------10-10-10-10-10-10-10-10---12BU-10---------------------------|
B|-------10-12---10-10-10-10-10-10-10-10-----------12BU-10-------------------|
G|--11BU----------------------------------------------------12BU--11---------|
D|--------------------------------------------------------------------12-----|
A|---------------------------------------------------------------------------|
E|---------------------------------------------------------------------------|


e|---------------------------------------------------------------------------|
B|----------------------------------10-10-----10-10-------10------10-----10--|
G|-----------------------------14BU-------14BU-------14BU----14BU-----12-----|
D|--12-12-12-12-12-12-12-12--------------------------------------------------|
A|--12-12-12-12-12-12-12-12--------------------------------------------------|
E|---------------------------------------------------------------------------|


e|---------------------------------------------------------------------------|
B|---------10-10------10-10---------10-10--------10-10-----------------------|
G|-----10--10-10------10-10----11---10-10----11--10-10---11--10-10----11-10--|
D|--12-------------12----------12------------12----------12-----------12-----|
A|---------------------------------------------------------------------------|
E|---------------------------------------------------------------------------|



e|---------12-10--12--10----12-13-12-10--------------------------------------|
B|--12H13--12-10--12--10----12-13-12-10--13-12-10-10-------------------------|
G|--12H13--------------------------------13-12-10-11--11-11-11-11---11-11-11-|
D|----------------------------------------------------12-12-12-12---12-12-12-|
A|----------------------------------------------------12-12-12-12------------|
E|---------------------------------------------------------------------------|
chords

      D     G     A     G7       D9
e|----------------------1-------------------|the D9 chord is the last 
B|----7-----------------0--------5----------|chord played in the song
G|----7-----------------0--------5----------|
D|----7-----5------7----0--------4----------|
A|----5-----5------7-------------5----------|
E|----------3------5------------------------|

          D                              G                      D
well ima write a little letter im gonna mail it to my local D.J.
            G                                            D
yeah thisa jumpin little record i want my jockey to play
       A                                        D
roll over Beethoven i got to hear it again today
             D                     G                    D
you know my temperature rising the juke box blowin a fuse
    G                                                    D
my heart beatin rhythm and my soul keep asingin the blues
        A                                      D
a roll over Beethoven tell Tchaikowski the news
 D                  G                              D 
rockin pneumonia i need a shot of rhythm and blues
              G                                             D
i caught the rollin arthritis sittin down at a rhythm review
        A                                      D 
a roll over Beethoven they rockin in two by two
             D
well if you feel it n like it go get your lover
                                        G7
then reel and rock it roll it over then move on up just a trifle further
      D                                   A
then reel and rock with one another roll over Beethoven dig these rhythm
          D
and blues

solo

  e|------10--13-12-10------------------------10-----------------------------|
B|-10---10-------------13-12-10-----------12------13H12-10-------------------|
G|-11----------------------------12-11-11------------------------------------|
D|---------------------------------------------------------------------------|
A|---------------------------------------------------------------------------|
E|---------------------------------------------------------------------------|



e|---------------------------------------------------------------------------|
B|--------10-10------10-10-----10-10-------10-10-----10-----10-----10--------|
G|---14BU--------14BU------14BU-------14BU-------14BU---14BU---14BU----------|
D|---------------------------------------------------------------------------|
A|---------------------------------------------------------------------------|
E|---------------------------------------------------------------------------|



e|-------------------------------10--------------------------10-------10-10--|
B|-----------------------10------10------10--------------10--10-------10-10--|
G|--12--10-------10-14BU----14BU-----12--10-----10--14BU---------14BU--------|
D|----------12------------------------------12-------------------------------|
A|---------------------------------------------------------------------------|
E|---------------------------------------------------------------------------|



e|---------10---13BU-10---10------10-12-10--------------------------10-------|
B|------10-------------------14BU----------13-12-10--------------10----------|
G|--14BU--------------------------------------------12--11BU--11-------------|
D|---------------------------------------------------------------------------|
A|---------------------------------------------------------------------------|
E|---------------------------------------------------------------------------|


                                                                    well...
e|------------10BU-10-10BU-10------------------------------------------------|
B|--12BU--10--10BU-10-10BU-10---12-10--12-10---------10-10-10-10-------------|
G|------------------------------12-10--12-10----11---11-12-12-12-------------|
D|----------------------------------------------12---12-12-12-12-------------|
A|----------------------------------------------12---------------------------|
E|---------------------------------------------------------------------------|





Comments


Popular Chuck Berry tabs & chords
Johnny B Goode 4 Bass Tabs
Back In The U.S.A Chords
Johnny B Goode 1 Chords
Roll Over Beethoven 1 Chords
Roll Over Beethoven 3 Chords
Carol 1 Tabs
No Particular Place To Go 2 Tabs
You Can Never Tell Tabs
C Est La Vie Ukulele
Johnny B Goode Ukulele


Song lyrics



↑ Back to top | Tablatures and chords are parodies/interpretations of the original songs. You may use it for private study, scholarship, research or language learning purposes only
© 2014 AZChords.com Contact us | Privacy policy | DMCA | Add/correct tabs | Request tabs | Top 50 tabs