>
 >
Maybellene 1

Maybellene 1 Guitar Tabs

Chuck Berry - Maybellene 1 chords, tabs, tablatures, lyrics

Guitar lessons | Add/correct | Request | Top 50 tabs Artists:  A B C D E F G H I J K L M N O P Q R S T U V W X Y Z 0-9

Maybellene 1 Guitar Tabs – Chuck Berry

CD, Sheet music, Poster

Do you like Maybellene 1? Share with your friends now
Bass TabsChordsTabsTabs v2Ukulele
e|---------------------------------------------------------------------------|
B|-------------------------------------------3----3------3-----3-------------|
G|----------3-----5--5---3-----5--5---5------3----3------3-----3-------------|
D|------3H5-------3--3---------3--3----------3----3------3-----3-------------|
A|----------------------------------------1-----------1----------------------|
E|---------------------------------------------1------------1----------------|
thats the intro

and this is what chuck plays during the singing parts
listen to the song for timing.

e|---------------------------------------------------------------------------|
B|---------3----3--------3-----3-------3----3-------3-------3----------------|
G|---------3----3--------3-----3-------3----3-------3-------3----------------|
D|---------3----3--------3-----3-------3----3-------3-------3----------------|
A|-----1-------------1--------------1-------------1--------------------------|
E|------------1--------------1------------1--------------1-------------------|

e|---------------------------------------------------------------------------|
B|-----------8----------8----------------8----------8------------------------|
G|-----------8----------8----------------8----------8------------------------|
D|-----------8----------8----------------8----------8------------------------|
A|-----6----------------------------6----------------------------------------|
E|-----------------6----------------------------6----------------------------|
then back to the first part
now the solo
e|------------------------------------------------------------------------------|
B|---------6-------6--------6--------6--------6------6--------6--------6--------|
G|--------/8---------/8--------/8------/8------/8-------/8------/8--------/8----|
D|------------------------------------------------------------------------------|
A|------------------------------------------------------------------------------|
E|------------------------------------------------------------------------------|


|e|-----------------------------------------------------------------------------|
B|-------6--------6---------6-------6-----6------6-----6------6-----6-----------|
G|----------/8------/8-------/8------/8-----/8----/8----/8-----/8-----/8--------|
D|------------------------------------------------------------------------------|
A|------------------------------------------------------------------------------|
E|------------------------------------------------------------------------------|

|
e|-----------------6---------------------6-------------------------------------|
B|------6--------6------/9-------6------------8--------------------------------|
G|--------/8-----------------------8-----------------6H7-----------------------|
D|---------------------------------------------------------8-5-8-8-------------|
A|-----------------------------------------------------------------------------|
E|-----------------------------------------------------------------------------|

e|---------------6---------------------10---10------10----10--10---------------|
B|-------------6-----------11---11-----11---11------11----11--11---------------|
G|-------6---7-----------------------------------------------------------------|
D|-----------------------------------------------------------------------------|
A|-----------------------------------------------------------------------------|
E|-----------------------------------------------------------------------------|

e|-------10--10------8-8-------------------------------------------------------|
B|-------11--11------8-8-----6---8--6--------------8b-----8b------6------------|
G|---------------------------7---8--7-------6-6----8b-----8b------6------------|
D|-----------------------------------------------------------------------------|
A|-----------------------------------------------------------------------------|
E|-----------------------------------------------------------------------------|

e|---------------------------------------------------------------------------|
B|---------------------------------------------------------------------------|
G|--------------------------------6--------6-----8---6-----------------------|
D|--------------8-----8-----------6--------6---8-8---6-----8-----------------|
A|-----------8--------8-----8------------8-----------------8-----------------|
E|---------------------------------------------------------------------------|
now play the part during the verses.
and now the outro

e|---------------------------------------------------------------------------|
B|----------------------------------------3------3-----4s6--6-----4---6------|
G|---------------3----5----5--5-----3---------3--3-----5s7--7-----5---7------|
D|-----------3H5------3----3--3-----3----------------------------------------|
A|---------------------------------------------------------------------------|
E|---------------------------------------------------------------------------|

e|---------------------------------------------------------------------------|
B|-----3---------------------4s6----6------4-----6---3-----------------------|
G|-----3---------------3-----5s7----7------5-----7---3-----------------3-----|
D|--------------5-3--5---------------------------------------5-3--5----------|
A|---------------------------------------------------------------------------|
E|---------------------------------------------------------------------------|





Comments


Popular Chuck Berry tabs & chords
Johnny B Goode 4 Bass Tabs
Almost Grown Chords
Back In The U.S.A Chords
Brown Eyed Handsome Man Chords
Maybellene Chords
Promised Land Chords
Sweet Little Sixteen Chords
Sweet Little Sixteen 2 Chords
No Particular Place To Go Intro Tabs
Run Run Rudolph Ukulele


Song lyrics



↑ Back to top | Tablatures and chords are parodies/interpretations of the original songs. You may use it for private study, scholarship, research or language learning purposes only
© 2014 AZChords.com Contact us | Privacy policy | DMCA | Add/correct tabs | Request tabs | Top 50 tabs