» » »

Chuck Berry, Mabeline Tabs (ver.1)

Artists:  A B C D E F G H I J K L M N O P Q R S T U V W X Y Z # 

Mabeline Tabs (ver.1)

Chuck Berry Tabs
 Rating:
4/5 (4 votes)
Mabeline lessons Tabs too difficult? Try these video lessons and learn fast
                this is mabeline by Chuck Berry!!! have fun rockin' out!


b=bend string



intro:
---------------------------------------------------
---------------------------------------------------
----------10-10---10b-10b--------------------------
------8---10-10-8-10b-10b--------------------------
-8-10----------------------------------------------
---------------------------------------------------

verses:
------------
------------
------------
------------
-8-10-8-10--
-6-6--6-6---   listen to the song to see how many times

------------
------------
------------
-8-10-8-10--
-6-6--6-6---
------------   listen to the song to see how many times

------------
------------
------------
------------
-8-10-8-10--
-6-6--6-6---   back to this...listen to the song to see how many times

------------
------------
------------
-10-12-10-12
-8--8--8--8-
------------   listen to the song to see how many times

------------
------------
------------
------------
-8-10-8-10--
-6-6--6-6---   again back to this...listen to the song to see how many times





have fun...
            
Submit corrections

comments powered by Disqus
↑ Back to top | Chuck Berry Tabs for Mabeline. Lyrics for acoustic guitar and electric guitar. Tablatures and chords are parodies/interpretations of the original songs. You may use it for private study, scholarship, research or language learning purposes only