>
 >
Let It Rock

Let It Rock Guitar Tabs

Chuck Berry - Let It Rock chords, tabs, tablatures, lyrics

Guitar lessons | Add/correct | Request | Top 50 tabs Artists:  A B C D E F G H I J K L M N O P Q R S T U V W X Y Z 0-9

Let It Rock Guitar Tabs – Chuck Berry

CD, Sheet music, Poster

Do you like Let It Rock? Share with your friends now
Tabs
b=bend  

intro                                                     in the  heat 
e|-----------------6--6--6--6--6-6-6--6--6-----------------------------------|
B|---------6--8----6--6--6--6--6-6-6--6--6---9-8-6-6-------------------------|
G|----7B-----------7-------------------------9-8-6-7-------------------------|
D|------------------------------------------------------8--8-----------------|
A|---------------------------------------------------------------------------|
E|---------------------------------------------------------------------------|
 

  of the day down in mobile, Alabama  workin on the rail road with a steel 
e|---------------------------------------------------------------------------|
B|---------------------------------------------------------------------------|
G|---------------------------------------------------------------------------|
D|---------------------------------------------------------------------------|
A|-8-8-10--8--8--8---10--8---8--8---10---8--8--8---10---8--8--8----10---8----|
E|-6-6-6---6--6--6---6---6---6--6----6---6--6--6---6----6--6--6----6----6----|
  

drivin hammer, i gotta get some money buy some brand new shoes 
e|---------------------------------------------------------------------------|
B|---------------------------------------------------------------------------|
G|---------------------------------------------------------------------------|
D|----------------8--8----10----8--8--8---10------8--8--8----10--------------|
A|---10--8--------6--6----6-----6--6--6---6-------6--6--6----6---------------|
E|---6---6-------------------------------------------------------------------|


 try to find somebody take away these blues   if she dont love me here i'm 
e|---------------------------------------------------------------------------|
B|---------------------------------------------------------------------------|
G|---------------------------------------------------------------------------|
D|------------------------------------------------10-10---12---10--10--10----|
A|----8----8----10-------8--8--8----10---8---------8--8---8----8---8----8----  
E|----6----6----6--------6--6--6----6----6-----------------------------------|

  singin in the sun                  pay day comin when my work is all done.
e|---------------------------------------------------------------------------|
B|---------------------------------------------------------------------------|
G|---------------------------------------------------------------------------|
D|--10--10---12--10--10--10-12-10--------------------------------------------|
A|--8---8----8---8---8---8--8--8-----8---8--10---8---8--8---10----8--8--8----|
E|-----------------------------------6---6---6---6---6--6----6----6--6--6----|


(piano solo)

e|-------------6-------------------8H6-------------------6--------------10H8-|
B|------8B-----8--------6----------8H6-----------8B------8--------6-----10H8-|
G|------7B--------------5----------8H6-----------7B---------------5-----10H8-|
D|------8B--------------6------------------------8B---------------6----------

A|---------------------------------------------------------------------------|
E|---------------------------------------------------------------------------|

                                            well,(second verse)
e|--------------------6------------------------------------------------------|
B|---------6H8--------8-------6----------------------------------------------|
G|---------5H7----------------5----------------------------------------------|
D|---------6H8----------------6----------------------------------------------|
A|---------------------------------------------------------------------------|
E|---------------------------------------------------------------------------|

(guitar solo)

e|-----------------------------------------------------6--8-9--8--6----------|
B|--------------18B-18B-18B--------18B---18B---18B-----6--8-9--8--6---6--18B-|
G|---18H19------18B-18B-18B--------18B---18B---18B--------------------6--18B-|
D|---------------------------------------------------------------------------|
A|---------------------------------------------------------------------------|
E|---------------------------------------------------------------------------|



e|-------------------------------------6---8--6----8--6-------8--6-----------|
B|---18B---18B--18B------18B--18B------------------8--6---6---8--6---9--8--6-|
G|---18B---18B--18B------18B--18B-------------------------7----------9--8--6-|
D|---------------------------------------------------------------------------|
A|---------------------------------------------------------------------------|
E|---------------------------------------------------------------------------|


                                        yeah,(3rd verse)
e|---------------------------------------------------------------------------|
B|-----------6----8H9P8------6---------6----------6--------------------------|
G|-----------6----8H10P8-----6---------6----------6--------------------------|
D|----8----------------------------8---------8-------------------------------|
A|---------------------------------------------------------------------------|
E|---------------------------------------------------------------------------|



(outro solo)
e|---------------------------------------------------------------------------|
B|---18B---------18B-18B-18B-------18B--18B--18B-----18B---------------------|
G|---18B---------18B-18B-18B-------18B--18B--18B-----18B---------------------|
D|---------------------------------------------------------------------------|
A|---------------------------------------------------------------------------|
E|---------------------------------------------------------------------------|


e|---------------------------------------------------------------------------|
B|---18----------18-----18B-----18----18B------18---18B----18--18B----18-----|
G|-------18B------------18B-----------18B-----------18B--------18B-----------|
D|---------------------------------------------------------------------------|
A|---------------------------------------------------------------------------|
E|---------------------------------------------------------------------------|



e|---------------------------------------------------------------------------|
B|----18B-------18-----------------------------------------------------------|
G|----18B-----------------15------15-----------------------------------------|
D|------------------------15------15-----------------------------------------|
A|---------------------------------------------------------------------------|
E|---------------------------------------------------------------------------|

fade





Comments


Popular Chuck Berry tabs & chords
Johnny B Goode 9 Bass Tabs
Roll Over Beethoven 2 Chords
Back In The U.S.A Tabs
Cest La Vie You Never Can Tell Tabs
It Dont Take But A Few Minutes Tabs
My Ding-A-Ling Tabs
No Paticular Place To Go Tabs
Rock And Roll Music Tabs
Brown Eyed Handsome Man Ukulele
Downbound Train Ukulele


Song lyrics



↑ Back to top | Tablatures and chords are parodies/interpretations of the original songs. You may use it for private study, scholarship, research or language learning purposes only
© 2014 AZChords.com Contact us | Privacy policy | DMCA | Add/correct tabs | Request tabs | Top 50 tabs