» » »

Chuck Berry, Johnny B Goode Tabs (ver.3)

Artists:  A B C D E F G H I J K L M N O P Q R S T U V W X Y Z # 

Johnny B Goode Tabs (ver.3)

Chuck Berry Tabs
 Rating:
4.2/5 (5 votes)
Johnny B Goode lessons Tabs too difficult? Try these video lessons and learn fast
                (Live)
JOHNNY B.GOODE
performed by Chuck Berry

This is my attempt at the live performance of johnny b goode filmed in black
and white during the 1960's (i think)
Not a 100% correct tab but pretty good i think:)


ENJOY!!!

Standard Tuning

-----------------8-8-8-8-8-8-8-8---------------------------------------------|
------------8-10-8-8-8-8-8-8-8-8---11-10-8-----------------------------------|
--9------9---------------------------------8h9-------------------------------|
-----------------------------------------------10-8-10-10-10-10-10-10-10-10--|
----------------------------------------------------10-10-10-10-10-10-10-10--|
-----------------------------------------------------------------------------|

-----------------------------------------------------------------------------|
--8-8-10-8----------------------------------------------/8-8-10\-------------|
--9-9-9--9--7-------------------------------------------/9-9-9-\-------------|
--------------10-7-----------------------------------------------------------|
------------------10----3-3-5-3-3-5-3-3--3-5-3-3-5---------------------------|
------------------------1-1-1-1-1-1-1-1--1-1-1-1-1---------------------------|

-----------------------------------------------------------------------------|
-----------------------------------------------------------------------------|
-----------------------------------------------------------------------------|
--5-5-7-5-5-7-5-5--5-5-7-5-5-7-5---------------------------------------------|
--3-3-3-3-3-3-3-3--3-3-3-3-3-3-3--5-5-7-5-5-7-5--3-3-5-3-3-5-3---------------|
----------------------------------3-3-3-3-3-3-3--1-1-1-1-1-1-1---------------|

-----------------------------------------------------------------------------|
-----------------------------------------------------------------------------|
-----------------------------------------------------------------------------|
--5-5-7-5-5-7-7-7-5-7-7-7-5-5-5----------------------------------------------|
--3-3-3-3-3-3-3-3-3-3-3-3-3-3-3----------------------------------------------|
-----------------------------------------------------------------------------|


Solo

--8--8-8-8-----------8-8-8-8-8------------8------8-----8----8----8----------|
--8--8-8-8-----------8-8-8-8-8------------8------8-----8----8----8----------|
-----------10-8----------------10-8--------10-----10----10b---10------------|
----------------10------------------10--------------------------------------|
----------------------------------------------------------------------------|
----------------------------------------------------------------------------|

--11---11---11----8-----10-8-----------8-8-8---------8----------8-----------|
--11br-11br-11br--8--11------11-8------8-8-8---------8----------8-----------|
----------------------------------10-8-------10-8------10-8-------10--------|
--------------------------------------------------10--------10--------------|
----------------------------------------------------------------------------|
----------------------------------------------------------------------------|

--10ss16-16-16\14--14\12--12\10--10\8--8\6--8-8-8---------------------------|
--11ss17-17-17\15--15\13--13\11--11\9--9\7--8-8-8---------8-----------------|
--------------------------------------------------10-8----8-----------------|
-------------------------------------------------------10------10-10-10-----|
---------------------------------------------------------------10-10-10-----|
----------------------------------------------------------------------------|


--8------------8-8-8-------------8-----------8----8----8----8----8----------|
--8------------8-8-8-------------8-----------8----8----8----8----8----------|
------10-8------------10-8---------10-8-------10---10---10---10---10b-------|
----------10--------------10-----------10-----------------------------------|
----------------------------------------------------------------------------|
----------------------------------------------------------------------------|

----------------------------------------------------------------------------|
---8---8--8---8--8---8--8---8--8---8--8---8--8---8----------8---------------|
---10b----10b----10b----10b----10b----10b----10b----10-8----8-10-8----------|
---------------------------------------------------------10--------10-------|
----------------------------------------------------------------------------|
----------------------------------------------------------------------------|

----------------------------------------------------------------------------|
--8-------8--8---8---8--8---8--8---8--8---8--8---8--8---8--8---8--8---8-----|
------10--10b----10b----10b----10b----10b----10b----10b----10b----10b-------|
----------------------------------------------------------------------------|
----------------------------------------------------------------------------|
----------------------------------------------------------------------------|

----------------------------------------------------------------------------|
--8---10-10-8----10-8-------------------------------------------------------|
--10b-10-10-8----10-8-------------------------------------------------------|
--------------10------10-8-10-10-10-----------------------------------------|
---------------------------10-10-10-----------------------------------------|
----------------------------------------------------------------------------|
            
Submit corrections

comments powered by Disqus
↑ Back to top | Chuck Berry Tabs for Johnny B Goode. Lyrics for acoustic guitar and electric guitar. Tablatures and chords are parodies/interpretations of the original songs. You may use it for private study, scholarship, research or language learning purposes only