>
 >
Johnny B Good 1

Johnny B Good 1 Guitar Tabs

Chuck Berry - Johnny B Good 1 chords, tabs, tablatures, lyrics

Guitar lessons | Add/correct | Request | Top 50 tabs Artists:  A B C D E F G H I J K L M N O P Q R S T U V W X Y Z 0-9

Johnny B Good 1 Guitar Tabs – Chuck Berry

CD, Sheet music, Poster

Do you like Johnny B Good 1? Share with your friends now
TabsTabs v2Tabs v3
E|-------6/777-6/777-6/777--------------------------------|
B|---7-9-6/777-6/777-6/777-10-9-7-------------------------|
G|7/8-----------------------------7/8---------------------|
D|------------------------------------8-8/999-8/999-8/999
A|--------------------------------------8/999-8/999-8/999
E|--------------------------------------------------------|

E|-------------------------------------------|
B|---7-9-7----------7-7-7-7----7-7-7--7-|
G|7/8------8------9b9b-9b-9b---9b-9b-9b-9b--|
D|-----------11-9----------------------------|
A|-------------------------------------------|
E|-------------------------------------------|

E|--7--------9-7----------------7---------------|
B|----10-9-7-----10-9-7-----7h10-10---7-7------|
G|9b--------------------9-9b--------9b-9b9-7---|
D|--------------------------------------------9-|
A|----------------------------------------------|
E|----------------------------------------------|





Comments


Popular Chuck Berry tabs & chords
Johnny B Goode 7 Bass Tabs
Almost Grown Chords
C Est La Vie Chords
Come On Chords
Maybellene Chords
Promised Land Chords
Roll Over Beethoven Chords
Mabeline Tabs
Rock N Roll Music Tabs
School Days Hail Hail Rock N Roll Tabs


Song lyrics



↑ Back to top | Tablatures and chords are parodies/interpretations of the original songs. You may use it for private study, scholarship, research or language learning purposes only
© 2014 AZChords.com Contact us | Privacy policy | DMCA | Add/correct tabs | Request tabs | Top 50 tabs