» » »

Johnny B Good Tabs (ver.1)

Artists:  A B C D E F G H I J K L M N O P Q R S T U V W X Y Z # 

Johnny B Good Tabs (ver.1)

Chuck Berry
Rating:
0/5 (0 votes)

Hard to play? Try these video lessons and learn fast.
                E|-------6/777-6/777-6/777--------------------------------|
B|---7-9-6/777-6/777-6/777-10-9-7-------------------------|
G|7/8-----------------------------7/8---------------------|
D|------------------------------------8-8/999-8/999-8/999
A|--------------------------------------8/999-8/999-8/999
E|--------------------------------------------------------|

E|-------------------------------------------|
B|---7-9-7----------7—-7—-7—-7----7—-7—-7--7-|
G|7/8------8------9b—9b-9b-9b---9b-9b-9b-9b--|
D|-----------11-9----------------------------|
A|-------------------------------------------|
E|-------------------------------------------|

E|--7--------9-7----------------7---------------|
B|----10-9-7-----10-9-7-----7h10-10---7—-7------|
G|9b--------------------9-9b--------9b-9b—9-7---|
D|--------------------------------------------9-|
A|----------------------------------------------|
E|----------------------------------------------|
            
Hard to play? Try these video lessons and learn fast. | Correct




comments powered by Disqus
↑ Back to top | Tablatures and chords are parodies/interpretations of the original songs. You may use it for private study, scholarship, research or language learning purposes only