» » »

Chris Tomlin, Trading My Sorrows Bass tabs (ver.1)

Artists:  A B C D E F G H I J K L M N O P Q R S T U V W X Y Z # 

Trading My Sorrows Bass tabs (ver.1)

Chris Tomlin Tabs
Rating:
0/5 (0 votes)
Trading My Sorrows lessons Tabs too difficult? Try these video lessons and learn fast
                

Intro:
G:-6-6---11-11---14-14-13----6-6--11-11---14-14-16--------|
D:--------------------------------------------------------| 
A:--------------------------------------------------------|
E:-5-5---10-10---14-14-12----5-5--10-10---14-14-15--------|
                                                          |
G:-16-16--11-11--14-14--13-13----6-6--11-11---14-14-13----|
D:--------------------------------------------------------| 
A:--------------------------------------------------------|
E:-15-15--10-10--14-14--12-12----5-5--10-10---14-14-12----|


Verse:
G:-6-6---11-11---14-14-13----6-6--11-11---14-14-16--------|
D:--------------------------------------------------------| 
A:--------------------------------------------------------|
E:-5-5---10-10---14-14-12----5-5--10-10---14-14-15--------|
							  | x4
G:-16-16--11-11--14-14--13-13----6-6--11-11---14-14-13----|
D:--------------------------------------------------------| 
A:--------------------------------------------------------|
E:-15-15--10-10--14-14--12-12----5-5--10-10---14-14-12----|


Pre-Chorus
G:-----------------------------------------|
D:-----------------------------------------| 
A:-------------5-5-5-5---7777777-----------|
E:-5--5-5-5555-----------------------------|

Chorus
G:------------------------------------------------------------|
D:----------------------------------------------------7-9-----| X4
A:-----5--5----9-9---7--7--------5--5----9-9---7--7-7---------|
E:-5-5----------------------5-5-------------------------------|

Repeat Verse
Repeat Pre-Chorus
Repeat Chorus
            
Submit corrections

comments powered by Disqus
↑ Back to top | Chris Tomlin Bass for Trading My Sorrows. Lyrics for acoustic guitar and electric guitar. Tablatures and chords are parodies/interpretations of the original songs. You may use it for private study, scholarship, research or language learning purposes only