» » »

Take My Life Tabs (ver.1)

Artists:  A B C D E F G H I J K L M N O P Q R S T U V W X Y Z # 

Take My Life Tabs (ver.1)

Chris Tomlin
Rating:
0/5 (0 votes)

Hard to play? Try these video lessons and learn fast.
                Intro:
e|-------0-------------------------------------------------------------|
B|-----3---3-----3-------3---------------3-------3-------3-------------|
G|---2---------2---2---2---2-----------0---0-------2---2---2-----------|
D|-0---------------------------0---0-----------2-----0-----------------|
A|-----------0-------2-----------------------0-------------------------|
E|---------------------------3---2---0---------------------------------|

Verse 1,2,and 3:
e|-------0-------------------------------------------------------------|
B|-----3---3-----3-------3---------------3-------3-------3-------------|
G|---2---------2---2---2---2-----------0---0-------2---2---2-----------|
D|-0---------------------------0---0-----------2-----0-----------------|
A|-----------0-------2-----------------------0-------------------------|
E|---------------------------3---2---0---------------------------------| 

e|-------0-------------------------------------------------------------|
B|-----3---3-----3-------3---------------3-------3-------3-------------|
G|---2---------2---2---2---2-----------0---0-------2---2---2-----------|
D|-0---------------------------0---0-----------2-----0-----------------|
A|-----------0-------2-----------------------0-------------------------|
E|---------------------------3---2---0---------------------------------|

e|---------------------------------------------------------------------|
B|-------3-------3-------3---------3-------3---------------------------|
G|-----0-------2-------0---0---------2---2---2-------------------------|
D|---2-------0-------2-------2---2-----0-------------------------------|
A|-3-------2-------------------0---------------------------------------|
E|-----------------0---------------------------------------------------| 

e|-------0---------------------------------------------------0---------|
B|-----3---3-----3-------3---------------3-------3-------3---3---------|
G|---2---------2---2---2---2-----------0---0-------2---2---2-2---------|
D|-0---------------------------0---0-----------2-----0-------0---------|
A|-----------0-------2-----------------------0-------------------------|
E|---------------------------3---2---0---------------------------------|

Chorus:
e|-3---3---0---0---3---3---0---0---------------------------------------|
B|-3---3---3---2---3---3---3---2---------------------------------------|
G|-0---0---2---0---0---0---2---0---------------------------------------|
D|-2---0---2---2---2---0---2---2---------------------------------------|
A|-2---2---0---0---2---2---0---0---------------------------------------|
E|-0---3-----------0---3-----------------------------------------------|

Interlude:
e|-------0---------------------------------------------------0-------0-|
B|-----3---3-----3-------3---------------3-------3-------3-------3---3-|
G|---2---------2---2---2---2-----------0---0-------2---2---2---2---2-2-|
D|-0---------------------------0---0-----------2-----0---------------0-|
A|-----------0-------2-----------------------0-------------------------|
E|---------------------------3---2---0---------------------------------|
            
Hard to play? Try these video lessons and learn fast. | Correct




comments powered by Disqus
↑ Back to top | Tablatures and chords are parodies/interpretations of the original songs. You may use it for private study, scholarship, research or language learning purposes only