» » »

Chris Tomlin, Spirit Fall Tabs (ver.1)

Artists:  A B C D E F G H I J K L M N O P Q R S T U V W X Y Z # 

Spirit Fall Tabs (ver.1)

Chris Tomlin Tabs
Rating:
0/5 (0 votes)
Spirit Fall lessons Tabs too difficult? Try these video lessons and learn fast
                Chris Tomlin

There are a couple of chord charts for this already, but I wanted to include
the lead guitar tab as well as a complete structure for the song.


Capo 5
Intro: Verse chords

Verse (piano only)
        C2           G
Spirit fall, spirit fall
             C2   Em7           Dsus4
Holy Spirit fall        Fall on me


Bridge x4 (building)
C2             G                    Dsus4
Like a mighty wind, Light the fire again

Come and breathe Your breath on me


Pre Chorus (2x mellow, 2x building)
Am        Em7       G         Dsus4
Oh oh oh, Oh oh oh, Oh oh oh oh


Chorus (2x full band)
     Am   Em7         D
Oh, come magnify the Son
               C2         G       Em7  D
Savior of the world, the hope for everyone

Pre-Chorus (2x full band)
Chorus (1x drums/vocals, 1x vocals/drums/gtr, 2x full band)
Verse (2x piano/vocals)
Pre-Chorus (2x building)
Chorus (2x full band to the end)


These tabs are played with the capo on the 5th fret, so while the fret 
numbers are accurate, an "0" means that string is "open" on the 5th fret.

Intro (Spirit Fall)
e|--8-10-0~~--8-10------8-0-8-10-0~~-7-8~~-8-10>12-10------------------------|
B|------(10)-------8~~-------------------------------------------------------|
G|---------------------------------------------------------------------------|
D|---------------------------------------------------------------------------|
A|---------------------------------------------------------------------------|
E|---------------------------------------------------------------------------|

or
e|---------------------------------------------------------------------------|
B|--13-15------13-15------13----13-15------12-13~~-13-15>17-15---------------|
G|--------14~~-------12~~----14-------14~~-----------------------------------|
D|---------------------------------------------------------------------------|
A|---------------------------------------------------------------------------|
E|---------------------------------------------------------------------------|

Play this lead for the rest of the song in different parts. The only time it
really differs is during the chorus. You play each section twice instead of
four times, and hold the 17th fret on "the hope" four times. 
Sounds like a lot, but it's really easy and you'll hear it when you play it.
e|---------------------------------------------------------------------------|
B|--18----18----18----18----17----17----17----17----15----15-----------------|
G|-----17----17----17----17----17----17----17----17----17----17-so on--------|
D|---------------------------------------------------------------------------|
A|---------------------------------------------------------------------------|
E|---------------------------------------------------------------------------|


If you have any input or corrections, hit me up on twitter and also let me 
know if you have any other songs you need help with. God bless!
            
Submit corrections

comments powered by Disqus
↑ Back to top | Chris Tomlin Tabs for Spirit Fall. Lyrics for acoustic guitar and electric guitar. Tablatures and chords are parodies/interpretations of the original songs. You may use it for private study, scholarship, research or language learning purposes only