» » »

Chris Tomlin, Party Tabs (ver.1)

Artists:  A B C D E F G H I J K L M N O P Q R S T U V W X Y Z # 

Party Tabs (ver.1)

Chris Tomlin Tabs
 Rating:
4/5 (4 votes)
Party lessons Tabs too difficult? Try these video lessons and learn fast
1
                
Author notes: Brand new Chris Tomlin song.
It debuted on the Passion: Everything Glorious worship album.
After each Bb powerchord there are palm mutes. That part is basically upto you.

------------------
Chords & sequences used:   F powerchord   133xxx
                           Bb powerchord  x133xx
                           ^=bend
                           x=palm mute
sequence1
e----------------------------------------|
B----------------------------------------|
G----------------------------------------|
D------------1----3-----------1----------|
A------3-------3----------3------1-------|
E-1------1----------1---------------5--1-|

sequence2
e---------------------------------------|
B---------------------------------------|
G--------------------------3---5--5--3--|
D------------1----3--------5---5--5--5--|
A------3-------3-----------3---3--3--3--|
E-1------1----------1-------------------|

sequence3
e---------------------------------------|
B---------------------------------------|
G-----------3---------------------------|
D-------------1------------1------------|
A-----3-3---------------3------1--------|
E-1-------1------1----------------5--1--|

---Intro---

{sequence1
 sequence2 x2}

{sequence3
 sequence2}

{sequence1
 sequence2}

---Verse---

F'p                Bb'p    x
Gonna outshout the heavens now.
F'                  Bb'p      x
Gonna sing loud and drown the sea out.
F'p                 B'p           F'p
Gonna celebrate the life I found. I found.
Bb'p   x
I'm found.

F'p             Bb'p  x
I was blind but now I see.
F'p              Bb'p    x
I was lost be He rescued me.
F'p                  Bb'p   x
He saved the day and He set me free.
F'p          Bb'p
Set me free, now I'm free.

---Chorus---

F'p
We're gonna
   Bb'p
F'p                Bb'p
I can feel it down inside
F'p  Bb'p
F'p                Bb'p
I was dead now I'm alive

---Solo---

e---------------------------------------|
B-1--1--1-----------3-------------------|
G-3^-3^-3^-31-3-3-1---31----------------|
D------------3----------3---------------|
A---------------------------------------|
E---------------------------------------|x4

                   F'p     Bb'p
Anybody feel like dancing?
                   F'p           Bb'p
Anybody feel like singing along?
                   F'p     Bb'p
Anybody feel like shouting?
                   F'p     Bb'p
Anybody feeling a party going on?


Please note these are not official chords. They are just submissions from fans.
            
Submit corrections

comments powered by Disqus
↑ Back to top | Chris Tomlin Tabs for Party. Lyrics for acoustic guitar and electric guitar. 1 Tablatures and chords are parodies/interpretations of the original songs. You may use it for private study, scholarship, research or language learning purposes only