» » »

Jesus Messiah Tabs (ver.1)

Artists:  A B C D E F G H I J K L M N O P Q R S T U V W X Y Z # 

Jesus Messiah Tabs (ver.1)

Chris Tomlin
Rating:
0/5 (0 votes)

Tabs too difficult? Try these video lessons and learn fast.
                Chris Tomlin


The only reason I'm submitting a tab for a song that's already been done
six times (virtually the same way) is because I have the lead part and we
can have everything in one file.

Hello Love - Capo 4, Passion - Capo 2
83 BPM

Intro: G/B  -  Am7  x4


Verse 1
G                  Am7
He became sin, who knew no sin
G/B                  C2
That we might become His Righteousness
G                     Am7
He humbled himself and carried the cross


Pre-Chorus x2
D        C2
Love so amazing
(the D here can be played as G/B, but I play D to emphasize that note)


Chorus
G                           C
Jesus Messiah,  Name above all names
        G               D
Blessed Redeemer,  Emmanuel
G
The rescue for sinners
                 C2
The ransom from Heaven
      G/B     D             G
Jesus Messiah,  Lord of all


Verse 2
His body the bread, His blood the wine
Broken and poured out all for love
The whole earth trembled and the veil was torn


Pre-Chorus x2
(Chorus)


Bridge x2
Am7                G/B
All our hope is in You
C2                  D
All our hope is in You
Am7              G/B
All the glory to You, God
C2                D
The light of the world

(Repeat Chorus)


Intro
e|---------------------------------------------------------------------|
B|----------12-11-12------------12-11-12-------------------------------|
G|------11-------------------11----------------------------------------|
D|---13-------------------14-------------------------------------------|
A|---------------------------------------------------------------------|
E|---------------------------------------------------------------------|


e|---------------------------------------------------------------------|
B|----------12-11-12------------11-------------------------------------|
G|------11-------------------11----------------------------------------|
D|---13-------------------11-------------------------------------------|
A|---------------------------------------------------------------------|
E|---------------------------------------------------------------------|


Verse (relative to capo)
e|--------------------------------------------------------------------------|
B|--------------------------------------------------------------------------|
G|--0-0-0-0-0-0-0-0-0-0-0-0-0-0-0-0-0-0-0-0-0-0-0-0--0--0--0--0--0--0--0--0-|
D|--5-5-5-5-5-5-5-5-7-7-7-7-7-7-7-7-9-9-9-9-9-9-9-9-10-10-10-10-10-10-10-10-|
A|--------------------------------------------------------------------------|
E|--------------------------------------------------------------------------|

e|--------------------------------------3-2-3--------------3----------------|
B|--------------------------------------------3---3------3---3--------------|
G|--0-0-0-0-0-0-0-0-0-0-0-0-0-0-0-0-------------2---------------------------|
D|--5-5-5-5-5-5-5-5-7-7-7-7-7-7-7-7--0--------------------------------------|
A|----------------------------------------------------3---------------------|
E|--------------------------------------------------------------------------|


Chorus (this is capo 4 and the open string is capo'd - move down 2 frets
if playing in A/capo 2, but let the G string ring with the capo on regardless. Hopefully 
clear enough to understand.)
e|---------------------------------------------------------------------|
B|--17-16-16-14-16-16-14-16-16-14-16-14-19-19-19-19--------------------|
G|--0--0--0--0--0--0--0--0--0--0--0--0--0--0--0--0---------------------|
D|---------------------------------------------------------------------|
A|---------------------------------------------------------------------|
E|---------------------------------------------------------------------|

Repeat, and then this for "Emmanuel"
e|---------------------------------------------------------------------|
B|--14-14-14-14-14-14-14-14-12-12-12-12-12-12-12-12--------------------|
G|--0--0--0--0--0--0--0--0--0--0--0--0--0--0--0--0---------------------|
D|---------------------------------------------------------------------|
A|---------------------------------------------------------------------|
E|---------------------------------------------------------------------|


If you have any input or corrections, check out my blog for more info and
let me know if you have any songs you need help with. God bless!
            
Tabs too difficult? Try these video lessons and learn fast.


comments powered by Disqus
↑ Back to top | Tablatures and chords are parodies/interpretations of the original songs. You may use it for private study, scholarship, research or language learning purposes only