>
 >
Here I Am To Worship

Here I Am To Worship Guitar Tabs

Chris Tomlin - Here I Am To Worship chords, tabs, tablatures, lyrics

Guitar lessons | Add/correct | Request | Top 50 tabs Artists:  A B C D E F G H I J K L M N O P Q R S T U V W X Y Z 0-9

Here I Am To Worship Guitar Tabs – Chris Tomlin

CD, Sheet music, Poster

Do you like Here I Am To Worship? Share with your friends now
ChordsTabsUkulele
Very Easy song..first submitted tab, but it is 100% right..the others arent...done by 
ear, but its correct. Just follow along with the lyrics..obviously...

E--2-----2--3---0----0------2-----3----3-2----0--------2-2----3-----|
B------------------------------------------------3------------------|
G-------------------------------------------------------------------|
D-------------------------------------------------------------------|
A-------------------------------------------------------------------|
E-------------------------------------------------------------------|
   Light of the world You stepped down into darkness. Opened my

E--0----0---2-------2-2----3---0----0-2--3-----3-2------------------|
B--------------3-------------------------------------3--------------|
G-------------------------------------------------------------------|
D-------------------------------------------------------------------|
A-------------------------------------------------------------------|
E-------------------------------------------------------------------|
 eyes, let me see.Beauty that made this heart adore You

E---2---2--3--0-----0----2------------------------------------------|
B-----------------------------3-------------------------------------|
G-------------------------------------------------------------------|
D-------------------------------------------------------------------|
A-------------------------------------------------------------------|
E-------------------------------------------------------------------|
   Hope of a life spent with You

Chorus
E---3---2-2--0----2-2-----3---2-2--0--0----0------------------------|
B-------------------------------------------------------------------|
G-------------------------------------------------------------------|
D-------------------------------------------------------------------|
A-------------------------------------------------------------------|
E-------------------------------------------------------------------|
   Here I am to worship, Here I am to bow down,

E---3---2-2--0---2--2-----2-----5--0----3------3-2-2-0----2-2---------|
B---------------------------------------------------------------------|
G---------------------------------------------------------------------|
D---------------------------------------------------------------------|
A---------------------------------------------------------------------|
E---------------------------------------------------------------------|
   Here I am to say that You're my God You're altogether lovely

E----3---2-2-0----0-0-0---3---2-2-0----2-2-2-----5--0---------------|
B-------------------------------------------------------------------|
G-------------------------------------------------------------------|
D-------------------------------------------------------------------|
A-------------------------------------------------------------------|
E-------------------------------------------------------------------|
    All together worthy, All together wonderful to me

E--2---2--3----0----0---2--3-3-----2-0------2-2----3--0-0-----2-----|
B--------------------------------------3-------------------------3--|
G-------------------------------------------------------------------|
D-------------------------------------------------------------------|
A-------------------------------------------------------------------|
E-------------------------------------------------------------------|
  King of all days oh, so highly exalted  Glorious in heaven above

E----2-2---3--0----0---2----3----3----2-0----2---2---3--------------|
B-----------------------------------------3-------------------------|
G-------------------------------------------------------------------|
D-------------------------------------------------------------------|
A-------------------------------------------------------------------|
E-------------------------------------------------------------------|
   Humbly You came To the earth You created All for love's

E---0----0-2--------------------------------------------------------|
B---------------3---------------------------------------------------|
G-------------------------------------------------------------------|
D-------------------------------------------------------------------|
A-------------------------------------------------------------------|
E-------------------------------------------------------------------|
   sake became poor

(CHORUS)


E---0---2-3---0----5----4--3--2-0--0---2---3--0---5-4--3----2-0-----|
B-------------------------------------------------------------------|
G-------------------------------------------------------------------|
D-------------------------------------------------------------------|
A-------------------------------------------------------------------|
E-------------------------------------------------------------------|
  I'll never know how much it cost To see my sin upon that cross

E---0---2-3---0----5----4--3--2-0--0---2---3--0---5-4--3----2-0-----|
B-------------------------------------------------------------------|
G-------------------------------------------------------------------|
D-------------------------------------------------------------------|
A-------------------------------------------------------------------|
E-------------------------------------------------------------------|
  I'll never know how much it cost To see my sin upon that cross

E---0---2-3---0----5----4--3--2-0--0---2---3--0---5-4--3----2-0-----|
B-------------------------------------------------------------------|
G-------------------------------------------------------------------|
D-------------------------------------------------------------------|
A-------------------------------------------------------------------|
E-------------------------------------------------------------------|
  I'll never know how much it cost To see my sin upon that cross

E---0---2-3---0----5----4--3--2-0-----------------------------------|
B-------------------------------------------------------------------|
G-------------------------------------------------------------------|
D-------------------------------------------------------------------|
A-------------------------------------------------------------------|
E-------------------------------------------------------------------|
  I'll never know how much it cost




(CHORUS) x2

E---0---2-3---0----5----4--3--2-0--0---2---3--0---5-4--3----2-0-----|
B-------------------------------------------------------------------|
G-------------------------------------------------------------------|
D-------------------------------------------------------------------|
A-------------------------------------------------------------------|
E-------------------------------------------------------------------|
  I'll never know how much it cost To see my sin upon that cross





Comments


Popular Chris Tomlin tabs & chords
Let God Arise 2 Bass Tabs
Emmanuel (Hallowed Manger Ground) Chords
Forever 2 Chords
God Of This City 6 Chords
How Great Is Our God 8 Chords
Not To Us 3 Chords
Your Grace Is Enough 4 Chords
Our God Is Greater 2 Tabs
Alle Ukulele
Not To Us Ukulele


Song lyrics



↑ Back to top | Tablatures and chords are parodies/interpretations of the original songs. You may use it for private study, scholarship, research or language learning purposes only
© 2014 AZChords.com Contact us | Privacy policy | DMCA | Add/correct tabs | Request tabs | Top 50 tabs